Freestyle - Once In A Lifetime Chords & Tabs

 

Once In A Lifetime Chords & Tabs

Freestyle Chords & Tabs

Version: 4 Type: Tab 0 ratings
1 star 2 stars 3 stars 4 stars 5 stars
comments

Once In A Lifetime Tab

   
Artist: Freestyle
Song: Once in a lifetime 
Tabbed by: SR Macalinao
Tuning: Standard

This is my first tab, pasensya na kung hindi masyadong katono yung dulo, gagawa na lang
ako ng bago kapag may time na ako, pakiayos na lang. Astig talaga yung kantang to parang
foreign yung kumanta galing talaga ng Freestyle. Hello nga pala sa mga clasm8 ko sa BC. 
[ Tab from: http://www.guitartabs.cc/tabs/f/freestyle/once_in_a_lifetime_tab_ver_4.html ]
Intro:
E|-----3---2---0-------4-/-3----2----0-----5--------------------------|
B|-----------------3--------------------3-----------------------------|
G|--------------------------------------------------------------------|
D|--------------------------------------------------------------------|
A|--------------------------------------------------------------------|
E|--------------------------------------------------------------------|

E|----3---2---0------3---2---0--------------3---0---5-----------------|
B|---------------3---------------3---2---3----------------------------|
G|--------------------------------------------------------------------|
D|--------------------------------------------------------------------|
A|--------------------------------------------------------------------|
E|--------------------------------------------------------------------|

Chords: A5 E Bm7 D
	Refrain: Bm7 F#m
	Chorus: A5 E Bm7 D
	Bridge G A E

Email add: srmacalinao@yahoo.com
Comments