Freestyle - Once In A Lifetime Chords & Tabs

 

Once In A Lifetime Chords & Tabs

Freestyle Chords & Tabs

Version: 2 Type: Tab 0 ratings
1 star 2 stars 3 stars 4 stars 5 stars
comments

Once In A Lifetime Tab

-------------------------------------------------------------------------------
			     ONCE IN A LIFE TIME - FREESTYLE
-------------------------------------------------------------------------------
Tabbed by: gracer 15
Email: ad_gracer@yahoo.com
Date: January 26, 2005

Tuning: standard

This is my first tab...so ur corrections wud hav a gud reception..juz hop ds 
s fyn...meanwhile, gudluck 2 MHCCS batch 2005!!Hurray!!!!

Intro:

e|--5-------3-------3-------3-------3-------3-------3-------3------3---------|
B|--5-------3-------3-------3-------3-------3-------3-------3------3---------|
G|--7-------5----------------------------------------------------------------|
D|--7-------5-------2---------------2---------------2--------------2---------|
A|--5-------3-------3-------2-------3-------2-------3-------2------3---------|
E|--------------------------3---------------3---------------3----------------|


Verse 1:

e|----------------2------2---------------------------------------------------|
B|----------------3------3---------------------------------------------------|
G|--2-----1-------4------2---------------------------------------------------|2x
D|--2-----2-------4----------------------------------------------------------|
A|--------2-------2----------------------------------------------------------|
E|---------------------------------------------------------------------------|

I've been thinking..

Refrain:
[ Tab from: http://www.guitartabs.cc/tabs/f/freestyle/once_in_a_lifetime_tab_ver_2.html ]
e|--2-----2-----2-----2-----2-----2-----2------------------------------------|
B|--3-----2-----3-----2-----3-----2-----3------------------------------------|
G|--4-----2-----4-----2-----4-----2-----2------------------------------------|
D|--4-----4-----4-----4-----4-----4------------------------------------------|
A|--2-----4-----2-----4-----2-----4------------------------------------------|
E|--------2-----------2-----------2------------------------------------------|
Oh..i've heard it all..

Chorus:

I know the while..
e|--------------2-----2------------------------------------------------------|
B|--------------3-----3------------------------------------------------------|
G|--2----1------4-----2------------------------------------------------------|
D|--2----2------4------------------------------------------------------------|2x
A|-------2------2------------------------------------------------------------|
E|---------------------------------------------------------------------------|

Verse II (same wd verse I)



Bridge:

e|----3------5-----------------------------------------------------------------|
B|----3------5-----------------------------------------------------------------|
G|----4------6-----------------------------------------------------------------|4x
D|----5------7-----------------------------------------------------------------|
A|----5------7-----------------------------------------------------------------|
E|----3------5-----------------------------------------------------------------|
Feels like I'm..

(raise 2 frets higher: key of B)
Comments