Freedom 35 - In All Seriousity Chords & Tabs

 

In All Seriousity Chords & Tabs

Freedom 35 Chords & Tabs

Version: 1 Type: Tab 0 ratings
1 star 2 stars 3 stars 4 stars 5 stars
comments

In All Seriousity Tab

   
This band is a punk band from Nova-Scotia, Canada, they've been a band for around 9
years. They're music is very good so i'm a fan trying to help get known so i'm putting
this tab for a little glimpse of what they play. When u figure out what they sound like
you'll like it trust me. Just try to play it you won't regret it.

Intro for "In All Serosity" by Freedom 35

standard tuning: 

E A D G B E


gtr 1:

|-----------------------------------|-----------------------------------|
|-----------------------------------|-----------------------------------|
|-----------------------------------|-----------------------------------|
|------4-----5---7-----5---4---5p4--|------4-----5---7-----5---4---5p4--|
|--7-7---7-7---7---7-7---7---7------|--5-5---5-5---5---5-5---5---5------|
|-----------------------------------|-----------------------------------|

[ Tab from: http://www.guitartabs.cc/tabs/f/freedom_35/in_all_seriousity_tab.html ]
|-----------------------------------|-----------------------------------|
|-----------------------------------|-----------------------------------|
|-----------------------------------|-----------------------------------|
|------4-----5---7-----5---4---5p4--|------1---1---2---4---2---1---2p1--|
|--3-3---3-3---3---3-3---3---3------|--2-2---2---2---2---2---2---2------|
|-----------------------------------|-----------------------------------| repeat with gtr 2



gtr 2 (doubled over gtr 1):

|---------------------------------------------------|---------------------------------------------------|
|---------------------------------------------------|---------------------------------------------------|
|---------------------------------------------------|---------------------------------------------------|
|--------11-------12----14-------12----11----12p11--|--------11-------12----14-------12----11----12p11--|
|--14-14----14-14----14----14-14----14----14--------|--12-12----12-12----12----12-12----12----12--------|
|---------------------------------------------------|---------------------------------------------------|


|---------------------------------------------------|---------------------------------------------------|
|---------------------------------------------------|---------------------------------------------------|
|---------------------------------------------------|---------------------------------------------------|
|--------11-------12----14-------12----11----12p11--|------8---8---9---11---9---8---9p8-----------------|
|--10-10----10-10----10----10-10----10----10--------|--9-9---9---9---9----9---9---9---------------------|
|---------------------------------------------------|---------------------------------------------------|


tabbed by Travis Collings (F35)
Comments