Freed Jeremiah - Curtains Chords & Tabs

 

Curtains Chords & Tabs

Freed Jeremiah Chords & Tabs

Version: 1 Type: Tab 0 ratings
1 star 2 stars 3 stars 4 stars 5 stars
comments

Curtains Tab

"Curtains" by: Jeremiah Freed
Tabbed by: Rob Marston (rob@leftatom.com)

This isn't 100% correct but, it sounds alright to me! Have Fun!



Intro: (Guitar 1)

e-|---3-----------------5-----------------|
B-|---3-----------------5-----------------|
G-|---4-----------------6-----------------|
D-|---5---(-16-times)---7---(-16-times)---|
A-|---5-----------------7-----------------|
E-|---3-----------------5-----------------|


Intro 2: (Guitar 1)

e-|-----------------------------------------------------------------|
B-|-----------------------------------------------------------------|
G-|-5h4p0-5h4p0-5---7h5p0-7h5p0-7---5h4p0-5h4p0-5~-5h4p0-5h4p0-5~---|
D-|-----------------------------------------------------------------|
A-|-----------------------------------------------------------------|
E-|-----------------------------------------------------------------|

e-|-------------------------------------------------------------------|
B-|-------------------------------------------------------------------|
G-|-5h4p0-5h4p0-5---7h5p0-7h5p0-7---5h4p0-5h4p0-5~-5h4p0-5h4p0-5~~~---|
D-|-------------------------------------------------------------------|
A-|-------------------------------------------------------------------|
E-|-------------------------------------------------------------------|

Intro 2: (Guitar 2)

e-|-----------------------------*-------------------------|
B-|-------------------------------------------------------|
G-|---X-5-5-----------------------------------------------|
D-|---X-5-5---X-5-5---7-7-7-7---3-------------------------|
A-|---X-3-3---X-5-5---7-7-7-7---3---(-play-this-twice-)---|
E-|-----------X-3-3---5-5-5-5---1-------------------------|

* keep playing this chord (listen to the song for the rythm


Verse: (*'s = mute)
[ Tab from: http://www.guitartabs.cc/tabs/f/freed_jeremiah/curtains_tab.html ]
e-|---------------|-----------------------------|---------------------------|
B-|---*-*-*-*-----|-----------------------------|---------------------------|
G-|---5-5-5-5-5---|-----*-*-*-*-----------------|---------------------------|
D-|---5-5-5-5-5---|---0h5-5-5-5-5---5-5-5-5-5---|---7-7-7-7-7---7-7-7-7-7---|
A-|---3-3-3-3-3---|---0h5-5-5-5-5---5-5-5-5-5---|---7-7-7-7-7---7-7-7-7-7---|
E-|---------------|---0h3-3-3-3-3---3-3-3-3-3---|---5-5-5-5-5---5-5-5-5-5---|

e-|-----------------------------|
B-|-----------------------------|
G-|-----*-*-*-*-----------------|
D-|---0h3-3-3-3-3---3-3-3-3-3---|
A-|---0h3-3-3-3-3---3-3-3-3-3---|
E-|---0h1-1-1-1-1---1-1-1-1-1---|


Bridge:

e-|------------------------------------------------------------------------------|
B-|------------------------------------------------------------------------------|
G-|------------------------------------------------------------------------------|
D-|---3~~~---5~~~---7-7-7-7-X-X-7-7-7-7-X-X-7-7-X-X-3~~~---X-X-5-5-5-5-5-5-5-5---|
A-|---3~~~---5~~~---7-7-7-7-X-X-7-7-7-7-X-X-7-7-X-X-3~~~---X-X-5-5-5-5-5-5-5-5---|
E-|---1~~~---3~~~---5-5-5-5-X-X-5-5-5-5-X-X-5-5-X-X-1~~~---X-X-3-3-3-3-3-3-3-3---|


Chorus: 

e-|-------------------*----------------------------------------------------|
B-|------------------------------------------------------------------------|
G-|---X-5-5----------------------------------------------------------------|
D-|---X-5-5---X-5-5---7-7-7-7---3------------------------------------------|
A-|---X-3-3---X-5-5---7-7-7-7---3---(-play-chord-until-riff-below-ends-)---|
E-|-----------X-3-3---5-5-5-5---1------------------------------------------|

Riff below begins at the *asterisk*

e-|---------------------------------|
B-|-5h4p0-5h4p0-5---7h5p0-7h5p0-7---|
G-|---------------------------------|
D-|---------------------------------|
A-|---------------------------------|
E-|---------------------------------|


Quite solo thing:

e-|---3~~~---5~~~---1~~~----------------------|
B-|---3~~~---5~~~---1~~~----------------------|
G-|---4~~~---6~~~---2~~~----------------------|
D-|---5~~~---7~~~---3~~~---(-play-4-times-)---|
A-|---5~~~---7~~~---3~~~----------------------|
E-|---3~~~---5~~~---1~~~----------------------|


Solo: 

I havn't done the solo yet, sorry guys. 


Outro:

e-|----------|
B-|----------|
G-|----------|
D-|---3~~~---|
A-|---3~~~---|
E-|---1~~~---|
Comments