Free - Wishing Well Chords & Tabs

 

Wishing Well Chords & Tabs

Free Chords & Tabs

Version: 2 Type: Tab 0 ratings
1 star 2 stars 3 stars 4 stars 5 stars
comments

Wishing Well Tab

Tabbed by:dan6794
Email:dan6794@btinternet.com
learnt this a while ago but all we got done was the intro, verses and chorus

easy to play and its a great starter song to learn

hope is makes sense  =>

[ Tab from: http://www.guitartabs.cc/tabs/f/free/wishing_well_tab_ver_2.html ]
Tuning:standard
guitar one
e|--------------------------------------------------------------------------------------|
B|--------------------------------------------------------------------------------------|
G|--------------------------------------------------------------------------------------|
D|-2-0----------------------2-0---------5-------------------------2---------------------|
A|-----2-0------2-0-------------2-0-----5-ring--------------------2-ring----------------|
E|------------------3-0-----------------3-------------------------0---------------------|
guitar two
e|---------------------------------------------------12--15--15--------------------------|
B|---------15^16--------------------15^17------------------------------------------------|
G|---------------------14~~------------------------12------------------------------------|
D|---------------------------------------------------------------------------------------|
A|---------------------------------------------------------------------------------------|
E|---------------------------------------------------------------------------------------|
guitar one x 2 verse
e|-------------------------------------------------------------------------------------|
B|-------------------------------------------------------------------------------------|
G|--9-----------------5----------7------9----------------------------------------------|
D|--9--x8-----------5----------7--------9-x4-------------------------------------------|
A|--7------------3-----------5----------7----------------------------------------------|
E|-------------------------------------------------------------------------------------|
chorus
e|---------------------------------------------------------------------------------------|
B|---------------------------------------------------------------------------------------|
G|---------------------------------------------------------------------------------------|
D|--3--------5--------7------------3-------5-------7-------------------------------------|
A|--3--------5--------7--x4--------3-------5-------7--x4---------------------------------|
E|--1--------3--------5------------1-------3-------5-------------------------------------|

e|---------------------------------------------------------------------------------------|
B|---------------------------------------------------------------------------------------|
G|---------------------------------------------------------------------------------------|
D|--3---------5------7--------------3-------5----2-0-------------------------------------|
A|--3---------5------7--x4----------3-------5--------2-0---------------------------------|
E|--1---------3------5--------------1-------3-------------intro--------------------------|
Comments