Free - Wishing Well Chords & Tabs

 

Wishing Well Chords & Tabs

Free Chords & Tabs

Version: 1 Type: Tab 0 ratings
1 star 2 stars 3 stars 4 stars 5 stars
comments

Wishing Well Tab

-------------------------------------------------------------------------------
			     Wishing Well - Free
-------------------------------------------------------------------------------
OK so since no-one's done this here yet, here's one of the greatest guitar intros ever. 
Sorry for not bothering to tab out the whole song, but I figure someone'll take it from here :p


Standard Tuning
You know the timing :)
[ Tab from: http://www.guitartabs.cc/tabs/f/free/wishing_well_tab.html ]
e|-----------------------------------3----------------------------------------|
B|-----------------------------------3----------------------------------------|
G|-----------------------------------0-----4----------------------------------|
D|---------------------0h2-0---------0-----2----------------------------------|
A|-5h7-5-----0h2-0-----------2-0-----2-----2----------------------------------|
E|-------7-5-------3-0---------------3----------------------------------------|
Comments