Free - Wishing Well Chords & Tabs

 

Wishing Well Chords & Tabs

Free Chords & Tabs

Version: 2 Type: Bass Tab 1 rating
1 star 2 stars 3 stars 4 stars 5 stars
comments

Wishing Well Bass Tab

                                Wishing Well - Free

Intro,

G----------------------------------------------------
D--2-0--------------2-0------------------------------
A------2-0--2-0---------2-0--------------------------
E---------------3-0---------3-~~~--------------------

Verse

G----------------------------------------------------
D----------------------------------------------------
A--------------------------3--5~---------------------
E-000000000000000000000000---------------------------

Chorus

G----------------------------------------------------
D----------------------------------------------------
A-3--5----------3--5----------3--5----------3--5~----
E------00000000------00000000------00000000----------

Break
[ Tab from: http://www.guitartabs.cc/tabs/f/free/wishing_well_btab_ver_2.html ]
G----------------------------------------------------
D--2-0--------------2-0------------------------------
A------2-0--2-0---------2-0--------------------------
E---------------3-0---------3-~~~--------------------

Bridge

G-----------------------------------------------------------------
D-----------------------------------------------------------------
A-3--5--0----3--5--7----3--5--0----3--5--7----3--5--7----3--5--7--  etc.
E-----------------------------------------------------------------

Chorus
Break

Outro

G----------------------------------------------------
D--2-0--------------2-0------------------------------
A------2-0--2-0---------2-0--------------------------  Repeat to fade
E---------------3-0---------3-0----------------------

And thats it, a very easy song to play

All comments (especially improvements) are welcome, but please go easy on me as this is my first tab
Comments