Free - Wild Indian Woman Chords & Tabs

 

Wild Indian Woman Chords & Tabs

Free Chords & Tabs

Version: 1 Type: Tab 0 ratings
1 star 2 stars 3 stars 4 stars 5 stars
comments

Wild Indian Woman Tab

Wild Indian Woman - FREE     Taken from the album FREE - ALL RIGHT NOW
(Rodgers/Fraser) - 1968

SNOWBALLCARL@aol.com    -Carl

i havent tabbed the rhythm guitar part of this song, just the lead...

LISTEN TO SONG TO WORK OUT THE TIMING

---------------------------------------------------------
--13---15~--------15-/-13-12-12--------------------------
-------------------------------------------12/15-15~-----
---------------------------------------------------------
---------------------------------------------------------
---------------------------------------------------------

---------------------------------------------------------
--12/15-13--15~------13-11----8-8------------------------
---------------------------12------10-12-----------------
---------------------------------------------------------
---------------------------------------------------------
---------------------------------------------------------

--------------------------------------------------------
--15-15--13-11---13-11------------------------/11~~-/8--
--------------12-------12--10--12-----------------------
--------------------------------------------------------
--------------------------------------------------------
--------------------------------------------------------

--------------------------------------------------------
--13p11-------------------/15^----------/15^------------
--------12-12--10---------------------------------------
--------------------------------------------------------
--------------------------------------------------------
--------------------------------------------------------

SOLO
--------------------------------------------------------
--15-15--13-11----13-11---------------------------------
---------------12------12--10--12~----------------------
--------------------------------------------------------
--------------------------------------------------------
--------------------------------------------------------

--------------------------------------------------------
--15-15--13-11----13-11---------------------------------
---------------12------12--10--12~-------/15~~~v^v^-----
--------------------------------------------------------
--------------------------------------------------------
--------------------------------------------------------
[ Tab from: http://www.guitartabs.cc/tabs/f/free/wild_indian_woman_tab.html ]
--------------------------------------------------------
--------------------------------------------------------
--12--15---12--15/19--15--12----------------------------
--------------------------------------------------------
--------------------------------------------------------
--------------------------------------------------------

--15---15---15---15-------------------------------------
--18---18---18---18------13---------/18^-----18---------
----------------------------12-12--------------15----12-
--------------------------------------------------------
--------------------------------------------------------
--------------------------------------------------------
   ^not sure how many times                      
    to play that, but it's           | MORE |
    the right note...                V      V

--------------------------------------------------------
-----------------15-15--13-11----13-11------------------
------------------------------12-------12---10-13-------
--10/12-------------------------------------------------
--------------------------------------------------------
--------------------------------------------------------

--------------------------------------------------------
--13^-13-13-11------------------------------------------
---------------12---12-10-12---------15-/14--/15--------
--------------------------------------------------------
--------------------------------------------------------
--------------------------------------------------------

--------------------------------------------------------
--18---18---18/20^--------------------------------------
----17---17---------------------------------------------
--------------------------------------------------------
--------------------------------------------------------
--------------------------------------------------------

Last Verse
----------------15--15--15------------------------------
----------------18^-18^-18^-------------------11--------
--10--12-------------------------/15--15-15-----12------
--------------------------------------------------------
--------------------------------------------------------
--------------------------------------------------------

--------------------------------------------------------
----18--18----20^------/15-13-11---13/15---11-----------
------17--17--------------------12-----------12---------
--------------------------------------------------------
--------------------------------------------------------
--------------------------------------------------------

There you go, now FACK OWFF...:)
-Carl
Comments