Free - Fire And Water Chords & Tabs

 

Free Chords & Tabs

Version: 1 Type: Tab 0 ratings
1 star 2 stars 3 stars 4 stars 5 stars
comments

Fire And Water Tab

Song: Fire And Water (by Andy Fraser and Paul Rodgers)
Album: Fire And Water (1970 - LP A&M 4268 / CD A&M 75021-3126-2)
Artist: Free
Info: Paul Kossoff was playing a sunburst Gibson Les Paul, much like the model
      used by Jimmy Page. If you have one of these models, the song will sound
      closer to the original. I played on a Washburn, and it sounded great, so
      you won't have to worry if you don't have the same model as he did.
      Feel free to contact me at suman@elvis.com if you have something to say!
      Bye...

*****

I just got the version already available in the Database, and increased it a
little bit, with some new parts, and (in my opinion) most accurate chords.

So, first of all, I would like to thank Mr. Rympu (baijantab@mantramail.com)
for his work, which sure helped me with mine!

Enjoy it!
[ Tab from: http://www.guitartabs.cc/tabs/f/free/fire_and_water_tab.html ]
Intro
E|-----------------------------------------|
B|-----------------------------------------|
G|--9--12-11----9--12--14-----9---7---6----|
D|--7--0--0-----7--0---0------7---4---2----|
A|--0-----------0-------------0---0---0----|
E|-----------------------------------------|

Riff 1
E|-------------------------|----------------|
B|-------------------------|----------------|
G|------------------7/9-9--|----------------| play a second time until you get
D|--7/9-9---7/9-9---7/9-9--|-7/9-9----------| to the X, and then go to fill 1
A|--7/9-9---7/9-9---5/7-7--|-7/9-9----------|
E|--5/7-7---5/7-7----------|-5/7-7----------|
                         (X)

Fill 1
E|---------|
B|---------|
G|--9---7--|
D|--9---7--|
A|--7---5--|
E|---------|

I think that's all I have to add, figure out the rest of the song, using the same
file I used!

Bye,
Vitor Suman
Comments