Free - Catch A Train Chords & Tabs

 

Catch A Train Chords & Tabs

Free Chords & Tabs

Version: 1 Type: Bass Tab

Catch A Train Bass Tab

Artist: Free
Song: Catch A Train (Track 1, Free At Last)

Tabber: Drew Thomson (drewthomson200@hotmail.com)

Intro:

One bar just guitars then...

0:05
G|-/15-/15--/14-/14--/15-/15--/14-/14--/15-/15-----------------------------|
D|-------------------------------------------------------------------------|
A|-------------------------------------------------------------------------|
E|-------------------------------------------------------------------------|


Chorus:

0:19
G|-------------------------------------------------------------------------|
D|--------------2------------2---------------------------------------------|
A|----------2-5---5-5----5-5---5-2--------------2-3-4-5--------------------|
E|-3----3-5--------------------------3----0-3-5----------3-----------------|
"Catch a train.."


Verse:

0:36
G|----------------------7-9-12-12-9----------------------------------------|
D|---------------7-9-10-------------12---12-12-9-7-7-7-7-------------------|
A|----2-3-5-7-10-----------------------------------------7----7------7--5--|
E|3-5-----------------------------------------------------9-----0-7------3*|

G|-------------------------------------------------------------------------|
D|-------------------0-1-2----0-2-5*---------------------------------------|
A|-----2-5-5-5*--2--------2------------------------------------------------|
E|-------------------------------------------------------------------------|


Chorus:

1:11
G|-------------------------------------------------------------------------|
D|--------------2------------2---------------------------------------------|
A|----------2-5---5-5*----5-5---5-2--------------2-3-4-5-------------------|
E|-3----3-5-------------------------0-3----0-3-5-----------3---------------|
"Catch a train.."


Solo:

1:28
G|-----------------------------------------------------------------12------|
D|--------------2------------2-------------------------------12-14----14---|
A|----------2-5---5-5----5-5---5-2--------------2-3-4-5--------------------|
E|-3----3-5------------------------0-3----0-3-5-----------3----------------|
[ Tab from: http://www.guitartabs.cc/tabs/f/free/catch_a_train_btab.html ]
G|-------------------------------------------------------------------------|
D|--------------2------------2---------------------------------------------|
A|----------2-5---5-5----5-5---5-2--------------2-3-4-5--------------------|
E|-3----3-5------------------------0-3----0-3-5-----------3----------------|


Bridge:

2:02
G|-----------------------------------------------------------------------12|
D|5-5-5-5-5-5-5-5-4-4-4-4-4-4-4-4-2-2-2-2---------5/---------------12-14---|
A|-----------------------------------------5-5-5-5------------12-14--------|
E|-------------------------------------------------------------------------|


Chorus:

2:19
G|------------------------------------------------------------------12-----|
D|--------------2------------2--------------------------------12-14----14--|
A|----------2-5---5-5----5-5---5-2--------------2-3-4-5--------------------|
E|-3----3-5------------------------0-3----0-3-5----------------------------|
"Catch a train.."

G|-------------------------------------------------------------------------|
D|--------------2------------2---------------------------------------------|
A|----------2-5---5-5----5-5---5-2-------------2-3-4-5---------------------|
E|-3----3-5------------------------0-3---0-3-5-----------------------------|


Outro:

2:51
G|-------------------------------------------------------------------------|
D|-5-5-5-5-5-5-5-5-5-5-5-5-5-5-------2-5-5-5-5-5-5-5-5-5-5-5-5-5-5---------|
A|-----------------------------2-3-5---------------------------------------|
E|-------------------------------------------------------------------------|

G|-------------------------------------------------------------------------|
D|-------------------------------------------------------------------------|
A|-------------------------------------------------------------------------|
E|-3-3-3-3-3----3-3-3-3----3-3-3-3-3----3-3-3-3----3-3-3-3-3----3-3-3-3----|

I can tell from re-listening hundreds of times that there are still little
notes and things that sound a bit different in some of the runs, but I can't
figure them out properly and this thing sounds fairly good.

If you want to tell me where I've gone wrong or you want some more Free tabs
(or other Classic Rock artists) then please e-mail me drewthomson200@hotmail.com