Free - All Right Now Chords & Tabs

 

All Right Now Chords & Tabs

Free Chords & Tabs

Version: 8 Type: Tab 0 ratings
1 star 2 stars 3 stars 4 stars 5 stars
comments

All Right Now Tab

All Right Now-Free

Intro/Verse
|---------------------------------------------
|--2---2-3 2---2--3-3-3-3---3-3-3-3---3-------
|--2---2-2-2---2--2-2-2-2---2-2-2-2---2-------
|--2---2-4-2---2--4-4-4-4---4-4-4-4---4-------
|--0---0-0-0 --0--0-0-0-0-0-0-0-0-0-0-0-------
|---------------------------------------------


Chorus
|-------------------------------
|--5-5--------3---3-3---5-------
|--6-6--------4---2-2---6-------
|--7-7--------5---4-4---7-------
|-------2-4-0-------------------
|-------------------------------

Bass riff before the solo
|-----------------------19----19-
|--------------------17----16----
|-0-0-0-----0-0------------------
|-------0-2-----2-0--------------



Solo
|------------------------------
|------------------------------
|-2~--2h4-4b5rb4--2---2h4-4p2--
|------------------------------
|------------------------------
|------------------------------

|-----0-------------0-------------5-----------------
|-/5--5h7--7p5--/5--5h7--7p5--------------------/10-
|-----------------------------4b5---4-4b5rb4-2------
|---------------------------------------------------
|---------------------------------------------------
|---------------------------------------------------

|------------------------------------------
|------10------10-------10------10--10/14--
|-9h11----9h11-----9h11----9h11------------
|------------------------------------------
|------------------------------------------
|------------------------------------------

|------------------------------------------
|------10------10-------10------10--10/14--
|-9h11----9h11-----9h11----9h11------------
|------------------------------------------
|------------------------------------------
|------------------------------------------
[ Tab from: http://www.guitartabs.cc/tabs/f/free/all_right_now_tab_ver_8.html ]
|---------------------------------------------------------------
|--12b13-10-10-----10----12b13-10-10----10----12b13-10-10----10-
|---------------11-------------------11-------------------11----
|---------------------------------------------------------------
|---------------------------------------------------------------
|---------------------------------------------------------------

|--17-------17--------17--------17----------------17-20b22-17----17--------
|-----17h20-----17h20-----17h20----17h20--20b22---------------19----20b22--
|--------------------------------------------------------------------------
|--------------------------------------------------------------------------
|--------------------------------------------------------------------------
|--------------------------------------------------------------------------

|--17-------17--------17--------17----------------17-20b22-17----17--------
|-----17h20-----17h20-----17h20----17h20--20b22---------------19----20b22--
|--------------------------------------------------------------------------
|--------------------------------------------------------------------------
|--------------------------------------------------------------------------
|--------------------------------------------------------------------------

|--17-------17--------17--------17----------------17-20b22-17----17--------
|-----17h20-----17h20-----17h20----17h20--20b22---------------19----20b22--
|--------------------------------------------------------------------------
|--------------------------------------------------------------------------
|--------------------------------------------------------------------------
|--------------------------------------------------------------------------
Then do the chorus again a couple of times and fade out.
Comments