Free - All Right Now Chords & Tabs

 

All Right Now Chords & Tabs

Free Chords & Tabs

Version: 5 Type: Tab 0 ratings
1 star 2 stars 3 stars 4 stars 5 stars
comments

All Right Now Tab

All right Now

Kenny McAllister

im not too sure on the intro, but i think its...

e|---------------------------------------------------------|
B|------------3--------------3p2h3p2h3p2h3p2h3-------3-----|
G|--2---------2---2----------2-2-2-2-2-2-2-2-2-------2---2-|
D|--2---------0---2----------2-2-2-2-2-2-2-2-2-------0---2-|
A|--0-----0-------0------0---0-0-0-0-0-0-0-0-0---0-------0-|
E|---------------------------------------------------------|

Chorus:
e|----------------------------------------------|
B|--5--5------------------------------------5---|
G|--2--2--------------7----7--7-------------2---|
D|--0--0----2--4--2---5----4--4----2--4--2--0---|
A|----------------------------------------------|
E|----------------------------------------------|


1st solo:
e|-----------------------------|------------------|
B|---13--13--13----15----13----|-----13b----------|
G|-14--14--14----14---------14-|--14~-------------|
D|-----------------------------|------------------|
A|-----------------------------|------------------|
E|-----------------------------|------------------|

e|---------------------------------|--------------|
B|-15bu---\15p13---15~~~--13-------|--------------|
G|---------------------------14~~~-|-14~~~  (14)\-|
D|---------------------------------|--------------|
A|---------------------------------|--------------|
E|---------------------------------|--------------|


e|----------------------------|-----------------------------------|
B|---13--13--13----15---13----|-----13b--15bu\bd(15)p13-15bu~~----|
G|-14--14--14----14--------14-|--14~------------------------------|
D|----------------------------|-----------------------------------|
A|----------------------------|-----------------------------------|
E|----------------------------|-----------------------------------|


e|------------------------|-15bu--bd--(15)~~~~~--|
B|--17fb------13----------|----------------------|
G|---------------14~~~----|----------------------|
D|------------------------|----------------------|
A|------------------------|----------------------|
E|------------------------|----------------------|


quiet bitty with bass n percuss.



Crd progress. between 1st n 2nd solo:   G  D/F#     G  D/F#    A

2nd Solo:(the one you hear on most compilations)
e|----------------------------------|-----------------------|
B|----------------------------------|-----------------------|
G|-0-h-2~~~-----2/4~~~----2-/-4~~~--|-4-\-2~~~--------------|
D|----------------------------------|-----------------------|
A|----------------------------------|-----------------------|
E|----------------------------------|-----------------------|


e|-----------------------------|-0--------------------------|
B|------------------------3\5~~|-5-/-7~~~--------7-\-5~~~---|
G|--2-/-4~~~---4-\-2~~~--------|----------------------------|
D|-----------------------------|----------------------------|
A|-----------------------------|----------------------------|
E|-----------------------------|----------------------------|


e|--------0--------------------|-------5--------------------|
B|-5~~~---5-/-7-----7-\-5------|----------------------------|
G|-----------------------------|-2h4------4-b1/2-(2)--2~~~--|
D|-----------------------------|----------------------------|
A|-----------------------------|----------------------------|
E|-----------------------------|----------------------------|

[ Tab from: http://www.guitartabs.cc/tabs/f/free/all_right_now_tab_ver_5.html ]
e|--------------|--------------------------------------|----------|
B|--------------|--------------------------------------|----------|
G|--11/14~~~~~--|-14--14----14-----14-----14--------14-|-16bu~~~--|
D|--------------|---14--h16---14h16--14h16--14h16------|----------|
A|--------------|--------------------------------------|----------|
E|--------------|--------------------------------------|----------|


e|-------------------------------------|----------------------|
B|-------------------------------------|----------------------|
G|------14-----14-----14-----14-----14-|--16bu~~~~~~-bd-(16)--|
D|-14h16--14h16--14h16--14h16--14h16---|----------------------|
A|-------------------------------------|----------------------|
E|-------------------------------------|----------------------|


e|----------------------------|--------------------------|
B|----------------------------|-17-----------------------|
G|-16bu-bd-(16)--14-----14~~~-|-16bu-bd-(16)p14----14~~~-|
D|--------------------16------|------------------16------|
A|----------------------------|--------------------------|
E|----------------------------|--------------------------|


e|--------------------------|
B|-17-----------------------|
G|-16bu-bd-(16)p14----14~~~-|
D|------------------16------|
A|--------------------------|
E|--------------------------|


e|------17-----17-----17-----17-----17--|-----------|
B|-17h20--17h20--17h20--17h20--17h20----|-20bu~~~~--|
G|--------------------------------------|-----------|
D|--------------------------------------|-----------|
A|--------------------------------------|-----------|
E|--------------------------------------|-----------|


e|-17-----20bu-bd.(20)p17--20-----------17-------------|
B|----17----------------------20bu~~~--------20bu~~~---|
G|-----------------------------------------------------|
D|-----------------------------------------------------|
A|-----------------------------------------------------|
E|-----------------------------------------------------|


e|----17-|------17-----17-----17-----17-----17--|----------17----|
B|-------|-17h20--17h20--17h20--17h20--17h20----|-20bu~~~~----17-|
G|--0----|--------------------------------------|----------------|
D|-------|--------------------------------------|----------------|
A|-------|--------------------------------------|----------------|
E|-------|--------------------------------------|----------------|


e|--20bu-bd.(20)-20bu-bd.(20)--17-|--20----------17--------|
B|--------------------------------|-----20bu----------20---|
G|--------------------------------|------------------------|
D|--------------------------------|------------------------|
A|--------------------------------|------------------------|
E|--------------------------------|------------------------|


e|----------------------------------------|
B|-20bu-bd.(20)-19~~19--17-----(17)~~~~~--|
G|----------------------------------------|
D|----------------------------------------|
A|----------------------------------------|
E|----------------------------------------|

Back to Chorus.

Dont look at this, an think BRICK, cause it ain't. My guitar tutor 
taught me it in less than a week. It'll come together fine, all you
need is just a little patience...

by the way,  bu= bend up
	     bd= bend down
	     / = slide up
             \ = slide down
            ~~ = vibrato
             h = hammer on to ascending fret
             p = pull off to descending fret	

HAVE FUN!!

________________________________________________
just because scotland cant win at anythin apart
from curling (you go ladies), doesnt mean its
not the best country in the world, defo the best
place to live in
Comments