Freddie Hubbard - Red Clay Chords & Tabs

 

Red Clay Chords & Tabs

Freddie Hubbard Chords & Tabs

Version: 1 Type: Bass Tab 0 ratings
1 star 2 stars 3 stars 4 stars 5 stars
comments

Red Clay Bass Tab

This is a cool jazz song, and it has a cool bass line, so I decided to tab it.
Freddie Hubbard has some great jazz songs.
[ Tab from: http://www.guitartabs.cc/tabs/f/freddie_hubbard/red_clay_btab.html ]
------------------------------------------------------
-------9-9--------77-----7------9-------11--------12/- Play once
----9----------7-------7------9------11--------12-----
--7---------5--------7------9-----11-------12b-------

-------------------------------------------------------
--------9b---------7b------7------9-------11--------12/ Play through the song
----9----------7---------7------9------11--------12----
--7---7------5---5-----7------9-----11-------12b-------
Comments