Freak Power - Turn On Tune In Cop Out Chords & Tabs

 

Turn On Tune In Cop Out Chords & Tabs

Freak Power Chords & Tabs

Version: 4 Type: Bass Tab 0 ratings
1 star 2 stars 3 stars 4 stars 5 stars
comments

Turn On Tune In Cop Out Bass Tab

Freak Power
Turn On, Tune In, Cop Out
This is the riff that goes through the whole song.
[ Tab from: http://www.guitartabs.cc/tabs/f/freak_power/turn_on_tune_in_cop_out_btab_ver_4.html ]
        G|----------------------7---7-9-------------------------------|
	D|-----------5--9--7--9---9-----------------------------------|
	A|-----7--7---------------------------------------------------|
	E|------------------------------------------------------------|
    02:51
	G|------------------------------------------------------------|
	D|-5-5-5--5-5-------------------------------------------------|
	A|------------------------------------------------------------|
	E|------------------------------------------------------------|	(x4)

And then back to the main riff
	G|----------------------7---7-9-------------------------------|
	D|-----------5--9--7--9---9-----------------------------------|
	A|-----7--7---------------------------------------------------|
	E|------------------------------------------------------------|

By Catwoo
Comments