Franz Schubert - Impromptu Op142 No 2 Chords & Tabs

 

Impromptu Op142 No 2 Chords & Tabs

Franz Schubert Chords & Tabs

Version: 1 Type: Tab 0 ratings
1 star 2 stars 3 stars 4 stars 5 stars
comments

Impromptu Op142 No 2 Tab

                            Schubert: IMPROMPTU  Op.142 No.2


Transcribed by Christian Ottem (christian_ottem@hotmail.com)
This is one of my favorites indeed, it's an adagio from one of Schubert's impromtus which I've arranged 
fingerstyle guitar.

Have fun!

NB: I've now started a mailinglist os classical tabs. If you sign up, you'll get one free transcription 
week, just gimmie a mail for signing up or requests

E||---------------|------------------|------------------|
B||---------------|---------------0--|---------------0--|
G||---------------|--2-----2---------|--2-----1---------|
D||----------2----|--2-----2---------|--2-----2---------|
A||---------------|--4-----4---------|--5-----5---------|
E||---------------|--5---------------|------------------|

------------------|----------------|------------------|------------------|
--0----------0----|--2-------------|--2-----2------3--|--2-----0------2--|
--------2---------|----------------|------------------|------------------|
--------2----0----|--2--------2----|--2-----2------2--|--2-----2------2--|
--4----------7----|--4-------------|--4-----4------5--|--4-----2------4--|
------------------|--5-------------|--5---------------|------------------|

------------0-----|-----------0----|--5-----5------7--|--5-----0------7--|
--0---------0---3-|--2-------------|--5-----5---------|--5-----9---------|
-------2----------|--2-------------|--6-----6---------|--7-----7---------|
--2----2----2-----|--2-------------|--------7---------|------------------|
--2----0----------|----------------|--0---------------|------------------|
------------------|----------------|------------------|--7---------------|
[ Tab from: http://www.guitartabs.cc/tabs/f/franz_schubert/impromptu_op142_no_2_tab.html ]
--7-----5----7----|--9--------0----|--9------9-------10--|--9--------------9--|
--------5----5----|----------------|---------------------|---------12---------|
-------------7----|--9-------------|--9------9-----------|--10-----10---------|
-------------6----|--7-------------|--11-----11----------|--11-----11---------|
------------------|----------------|---------------------|--------------------|
--9---------------|----------------|---------------------|--------------------|

----------------------9---7-|--5--------------||--5----------0--|
--12----10-12-10-9-10-9-----|--5--------------||--5-------------|
--11------------------7-----|--6-------------*||--6-------------|
--11------------------------|--7-------------*||-------------7--|
----------------------7-----|--7--------7-----||-------------7--|
----------------------------|--5--------------||----------------|

--0----0---------|-----------------|-----------------|-------------2--|
--------------2--|--2----2---------|-------0----0----|--2-------------|
-----------------|--------------2--|--2---------7----|--2----------2--|
--7----7------2--|--2----2------4--|--4----0----6----|--2----------4--|
--7----7------4--|--4----4------4--|--4----7---------|--4----------5--|
-----------------|-----------------|-----------------|----------------|

--2----2---------|-----------------|------------3----|--2----------3--|
--------------3--|--3----3---------|-------3----3----|--3----------3--|
--2----2------2--|--2----2------2--|--2----3----3----|--2----------0--|
--4----4------4--|--4----4------4--|--4----5----5----|--4-------------|
--5----5---------|-----------------|-----------------|----------------|
-----------------|-----------------|-----------------|----------------|

--3------------|--1----0----------|----------------------|-----------------|
--3------------|--3---------3-----|-----------0----------|--1----0---------|
--0------------|--1------------2--|--2----------2-1-2--2-|------------2----|
---------------|---------------0--|--0-------------------|--1--------------|
---------------|------------------|----------------------|-----------------|
---------------|------------------|----------------------|-----------------|

----------------|------------------|
----------------|------------------|
----------------|------------------|
--2----2--------|--2----2-----2----|
--4-------------|--2---------------|
--5-------------|------------------|
Comments