Franz Ferdinand - Youre The Reason Im Leaving Chords & Tabs

 

Youre The Reason Im Leaving Chords & Tabs

Franz Ferdinand Chords & Tabs

Version: 2 Type: Bass Tab 0 ratings
1 star 2 stars 3 stars 4 stars 5 stars
comments

Youre The Reason Im Leaving Bass Tab

Artist-Franz Ferdinand
Song-You’re the reason I’m leaving
Album-You could have it so much better

Intro
|----------------------------|
|----------------------------|
|---------------------5----2-|
|-5----2----5----2-----------|

Verse
|-----------------------------------------------------------------
|-----------------------------------------------------------------
|----------------------------/4-4-5-5-5-5-5-5-7-7/----------------
|-7-7-7-7-7-9-9/-5-5-5-5-5-5----------------------5-5-5-5-5-5-6-6-

------------------------------------------------------------------
------------------------------------------------------------------
-----------------5-5-5-5-5-5-7-7--9-9-9-9-9-9-7-7-9-9-9-9-9-9-9-9-
--7-7-7-7-7-9-9/--------------------------------------------------

-----------------------------------------------------------------|
-----------------------------------------------------------------|
-----------------------------/4-4-5-5-5-5-5-5-7-7/---------------|
--7-7-7-7-7-9-9/-5-5-5-5-5-5----------------------5-5-5-5-5-5-6-6|

Chorus
|---------------------------------------------------------|
|---------------------------------------------------------|
|-------------------4/------------------4-5—-5-5-7/-------|
|-7—-7-7-9/--5—-5-5---7—-7-7-9/--5—-5-5------------5—-5-5-|

Verse2
|-----------------------------------------------------------------
|-----------------------------------------------------------------
|----------------------------/4-4-5-5-5-5-5-5-7-7/----------------
|-7-7-7-7-7-9-9/-5-5-5-5-5-5----------------------5-5-5-5-5-5-6-6-
[ Tab from: http://www.guitartabs.cc/tabs/f/franz_ferdinand/youre_the_reason_im_leaving_btab_ver_2.html ]
------------------------------------------------------------------
------------------------------------------------------------------
-----------------5-5-5-5-5-5-7-7--9-9-9-9-9-9-7-7-9-9-9-9-9-9-9-9-
--7-7-7-7-7-9-9/--------------------------------------------------

------------------------------------------------------------------|
------------------------------------------------------------------|
------------------------------------------------------------------|
--9-9-9-9-9-9-9-9-9-9-9-9-9-9-9-9-9-9-9-9-9-9-9-9-9-9-9—9-9-9-9-9-|

Chorus2
|---------------------------------------------
|---------------------------------------------
|-------------4/--------------/4-5-55-7/------
|-7—779/--5—55---7-779/--5—55-----------5-55--

--------------------------------------------------------------------
--------------------------------------------------------------------
------------------------------4-4-/----------------------------4-4/-
--7-7-7-7-7-7-9-9/5-5-5-5-5-5------7-7-7-7-7-7-9-9/5-5-5-5-5-5------

----------------------------------|
----------------------------------|
--5-5-5-5-5-5-7-7/----------------|
------------------5-5-5-5-5-5-6-6-|



Bridge
|---------------------------------|
|---------------------------------|
|---------------------------------|
|-7-7-7-7-7-7-7-7-7-7-7-7-7-7-7-7-|

|--------------------------------------|x4
|--------------------------------------|
|-----------4-4-5-5—-7-77-7-77-5-5-4-4-|
|-5-55-5-55----------------------------|

Bridge2
|-----------------------------------------------------------------------|
|-----------------------------------------------------------------------|
|-----------4/5-557/-------------5-557/-9-9-9-9-9-9-7-7-9-9-9-9-9-9-9-9-|
|-7-779/5-55--------5-556--7-779/---------------------------------------|

Verse2

Chorus
Comments