Franz Ferdinand - Youre The Reason Im Leaving Chords & Tabs

 

Youre The Reason Im Leaving Chords & Tabs

Franz Ferdinand Chords & Tabs

Version: 1 Type: Bass Tab 0 ratings
1 star 2 stars 3 stars 4 stars 5 stars
comments

Youre The Reason Im Leaving Bass Tab

----------------------------------------------------------------------------------------
You're The Reason I'm Leaving ~ Franz Ferdinand
----------------------------------------------------------------------------------------

Tabbed by: OrianaBorealis
Tuning: Standard

My first tab... Actually tabbed on a guitar, so I can't guarantee 100% accuracy, but it
should be very close.  This is off Franz Ferdinand's sophomore album, one I cannot
recommend enough, so buy it! Note: '10' is played on the tenth fret, not as 1 then
0. Numbers in parentheses are approximate.


Intro (0:00--0:10)
G|------------------------------------------------------|
D|------------------------------------------------------|
A|----------------------------------------5-------------|
E|----7--------5--------7--------5-----------------5----|


Verse 1 (0:10--0:33)
G|-----------------------------------------------------------------------|
D|-----------------------------------------------------------------------|                        
A|---------5-------4-55555-7---------------4-55555-7-99999-8-99999-------|
E|---77777---55555-----------55555-6-77777-------------------------10----| x2


Chorus (0:33--0:42)
G|----------------------------------------------------------|
D|----------------------------------------------------------|
A|----------5-99999----------5-------4-55555-7--------------|
E|----77777---------10-77777---55555-----------55555-6------|


Verse 2 (0:42--0:54)
G|--------------------------------------------------------------------------|
D|--------------------------------------------------------------------------|
A|----------5-------4-55555-7---------------4-55555-7-99999-8-99999---------|
E|----77777---55555-----------55555-6-77777-------------------------10------|

[ Tab from: http://www.guitartabs.cc/tabs/f/franz_ferdinand/youre_the_reason_im_leaving_btab.html ]
Break (0:54--1:09)
G|-------------------------------------------------------------------------|
D|-------------------------------------------------------------------------|
A|----------4-5-77777-55---------------------------55-77777777-------------|
E|----55555--------------77777-55-22-2222-44-55555-------------10(x12)-----|


Chorus (1:09--1:28)
G|----------------------------------------------------------|              
D|----------------------------------------------------------|              
A|----------5-99999----------5-------4-55555-7--------------|              
E|----77777---------10-77777---55555-----------55555-6------|  x2   


G|--------------------|
D|--------------------|
A|--------------------|
E|-------7(x12)-------|


Break (1:28--1:55)
G|-----------------------------------------------|
D|-----------------------------------------------|
A|-----------4-5-7(x10)-55-----------------------|
E|----5(x10)---------------7(x10)-55-2(x10)------|  x2


Verse 3 (1:55--2:19)
G|-------------------------------------------------------------|
D|-------------------------------------------------------------|
A|--------5-----4-555-7-----------4-555-7-99999-8-99999--------|
E|----777---555---------555-6-777-----------------------10-----|

G|--------------------------------------------------------------------------|
D|--------------------------------------------------------------------------|
A|----------5-------4-55555-7---------------4-55555-7-99999-8-99999---------|
E|----77777---55555-----------55555-6-77777-------------------------10------|


Prechorus (2:19--2:25)
G|--------------------------------|
D|--------------------------------|
A|-----------------5-99999--------|
E|----3(x15)-77777---------10-----|


Chorus (2:25--2:45)
G|---------------------------------------------------------|
D|---------------------------------------------------------|
A|----------5-99999----------5-------4-55555-7-------------|
E|----77777---------10-77777---55555-----------55555-6-----|  X2
Comments