Franz Ferdinand - What You Meant Chords & Tabs

 

What You Meant Chords & Tabs

Franz Ferdinand Chords & Tabs

Version: 2 Type: Tab 0 ratings
1 star 2 stars 3 stars 4 stars 5 stars
comments

What You Meant Tab

   
-------------------------------------------------------------------------------
			     WHAT YOU MEANT - Franz Ferdinand
-------------------------------------------------------------------------------
Tabbed by: Silvertie
Email: silvertie@ gmail.com

Tuning: Standard

This the amazing "What You Meant" from Franz Ferdinand's second album. "You Could Have It So Much Better". 

Intro 
  E                   G
e|------------------------------|
B|------------------------------|
G|------------------------------|              Repeat x 4
D|-----0-0-0-------0-2-2-0-2-0--|
A|-10\2---2-2-1-0-0-0---------2-|
E|------------------------------| 

Verse
  G D A       G D A        G D A       G D A 
e|------------------------------------------------------|
B|------------------------------------------------------|
G|-0----2-4-2--------2-4-2--0---2-4-2-0------0---2-4-2--|
D|--4-2------2-0-4-2------2--4-2-------0-4-2--4-2-----2-|
A|------------------------------------------------------|
E|------------------------------------------------------|

Pre-Chorus
  G                      F               G
e|-----------------------------------------|
B|-----------------------------------------|
G|-----------------------------------------|
D|-5-5-5-5-5-5-5-5-5-5-5-5-5-5-5-5-5-5-5-5-|         Repeat x 2   
A|-5-5-5-5-5-5-5-5-5-5-5-5-5-5-5-5-5-5-5-5-|
E|-3-3-3-3-3-3-3-3-3-3-3-3-3-3-3-3-3-3-3-3-|

Chorus
 
e|-----------------------------------|
B|-----------------------------------|
G|-----------------------------------|
D|-5-3-5-5----------------7-7-5-7-5--|        Repeat x 2
A|--------5-5-3-5-3-5-3------------7-|
E|---------------------5-5-----------|

Verse
  G D A       G D A        G D A       G D A 
e|------------------------------------------------------|
B|------------------------------------------------------|
G|-0----2-4-2--------2-4-2--0---2-4-2-0------0---2-4-2--|
D|--4-2------2-0-4-2------2--4-2-------0-4-2--4-2-----2-|
A|------------------------------------------------------|

Pre-Chorus
  G                      F               G
e|-----------------------------------------|
B|-----------------------------------------|
G|-----------------------------------------|
D|-5-5-5-5-5-5-5-5-5-5-5-5-5-5-5-5-5-5-5-5-|           Repeat x 2
A|-5-5-5-5-5-5-5-5-5-5-5-5-5-5-5-5-5-5-5-5-|
E|-3-3-3-3-3-3-3-3-3-3-3-3-3-3-3-3-3-3-3-3-|
[ Tab from: http://www.guitartabs.cc/tabs/f/franz_ferdinand/what_you_meant_tab_ver_2.html ]
Chorus
 
e|-----------------------------------|
B|-----------------------------------|
G|-----------------------------------|
D|-5-3-5-5----------------7-7-5-7-5--|        Repeat x 4
A|--------5-5-3-5-3-5-3------------7-|
E|---------------------5-5-----------|

Verse without any guitar, just bass. 

Pre-Chorus
  G                      F               G
e|-----------------------------------------|
B|-----------------------------------------|
G|-----------------------------------------|
D|-5-5-5-5-5-5-5-5-5-5-5-5-5-5-5-5-5-5-5-5-|         Repeat x 2 
A|-5-5-5-5-5-5-5-5-5-5-5-5-5-5-5-5-5-5-5-5-|
E|-3-3-3-3-3-3-3-3-3-3-3-3-3-3-3-3-3-3-3-3-|


  E                   G
e|------------------------------|
B|------------------------------|
G|------------------------------|              Repeat x 4
D|-----0-0-0-------0-2-2-0-2-0--|
A|-10\2---2-2-1-0-0-0---------2-|
E|------------------------------| 

Pre-Chorus
  G                      F               G
e|-----------------------------------------|
B|-----------------------------------------|
G|-----------------------------------------|
D|-5-5-5-5-5-5-5-5-5-5-5-5-5-5-5-5-5-5-5-5-|          
A|-5-5-5-5-5-5-5-5-5-5-5-5-5-5-5-5-5-5-5-5-|
E|-3-3-3-3-3-3-3-3-3-3-3-3-3-3-3-3-3-3-3-3-|

Chorus
 
e|-----------------------------------|
B|-----------------------------------|
G|-----------------------------------|
D|-5-3-5-5----------------7-7-5-7-5--|        Repeat x 4
A|--------5-5-3-5-3-5-3------------7-|
E|---------------------5-5-----------|

Verse
  G D A       G D A        G D A       G D A 
e|-------------------------------------------------------|
B|-------------------------------------------------------|
G|-0----2-4-2--------2-4-2--0---2-4-2-0------0---2-4-2---|
D|--4-2------2-0-4-2------2--4-2-------0-4-2--4-2-----2--|
A|-------------------------------------------------------|
E|-------------------------------------------------------|

  G                      F               G
e|-----------------------------------------|
B|-----------------------------------------|
G|-----------------------------------------|
D|-5-5-5-5-5-5-5-5-5-5-5-5-5-5-5-5-5-5-5-5-|          
A|-5-5-5-5-5-5-5-5-5-5-5-5-5-5-5-5-5-5-5-5-|
E|-3-3-3-3-3-3-3-3-3-3-3-3-3-3-3-3-3-3-3-3-|   Ring out...

 
END.


| /  slide up
| \  slide down
| h  hammer-on
| p  pull-off
| ~  vibrato
| +  harmonic
| x  Mute note
===============================================================================
Comments