Franz Ferdinand - What You Meant Chords & Tabs

 

What You Meant Chords & Tabs

Franz Ferdinand Chords & Tabs

Version: 1 Type: Tab 0 ratings
1 star 2 stars 3 stars 4 stars 5 stars
comments

What You Meant Tab

   
Artist:  Franz Ferdinand
Album:  You Could Have it So Much Better
Song:  What You Meant

This is just a basic tab, a lot more is still needed.  I really wanted to learn to play 
song, but no one had a tab for it.  Hopefully this will help get things going.

Intro.

e-------------------------------|  (Repeat)
B-------------------------------|
G-------------------------------|
D-------------------------------|
A-2-5-2-2-5-3-2-0-0-3-0-0-3-2-0-|
E-------------------------------|

Verse
[ Tab from: http://www.guitartabs.cc/tabs/f/franz_ferdinand/what_you_meant_tab.html ]
e-------------------------|
B-------------------------|
G------7----2----2-4-2-0--|
D-5----7----2-------------|
A-5----5----0-------------|
E-3-----------------------|

Pre-Chorus

(Choppy Feel)  Not correct amount of strums, listen to cd and follow along.

e-----------------|
B-----------------|
G---------555555--|
D-55555---555555--|
A-55555---333333--|
E-33333-----------|

Chorus

e---------------------------------|
B---------------------------------|
G---------------------------------|
D---------------------------------|
A----------5-5-3-5-5-3-0-0--7-7-7-|
E-3-3-1-3-------------------------|
Comments