Franz Ferdinand - Van Tango Chords & Tabs

 

Van Tango Chords & Tabs

Franz Ferdinand Chords & Tabs

Version: 1 Type: Bass Tab 0 ratings
1 star 2 stars 3 stars 4 stars 5 stars
comments

Van Tango Bass Tab

   
Van Tango
Bass
Standard Tuning

Tab by: Adrian Stone

Intro

G|--------------------|
D|-5/6-6-6-6-6-6-6-6-6|
A|--------------------|
E|--------------------|   x2

Verse

G|------------------------|
D|-------5----------------|
A|-3-5-6---6-6-6-6-6-6-5\6|
E|------------------------|   x6

Pre-Chorus

G|--------------------|
D|-5\6-6-6-6-6-6-6-6-6|
A|--------------------|
E|--------------------|   x4

Chorus

G|-------------------|
D|--10--10-----------|
A|--------88-66-55-44|
E|-8---8-------------|   x4

Verse

G|------------------------|
D|-------5----------------|
A|-3-5-6---6-6-6-6-6-6-5\6|
E|------------------------|   x10

Pre-Chorus
[ Tab from: http://www.guitartabs.cc/tabs/f/franz_ferdinand/van_tango_btab.html ]
G|--------------------|
D|-5\6-6-6-6-6-6-6-6-6|
A|--------------------|
E|--------------------|   x4

Chorus

G|-------------------|
D|--10--10-----------|
A|--------88-66-55-44|
E|-8---8-------------|   x4

Outro(live)

G|--------------------------------|
D|--------------------------------|
A|-----------------------------6-6|
E|-8-8-8-8-8-8-8-8-4-4-4-4-4-4----|   x8

G|--|
D|--|
A|--|
E|-8|

Outro(normal)

G|--------------------------------|
D|--------------------------------|
A|-----------------------------6-6|
E|-8-8-8-8-8-8-8-8-4-4-4-4-4-4----|   x8

Chorus

G|-------------------|
D|--10--10-----------|
A|--------88-66-55-44|
E|-8---8-------------|   x4

G|--------------------|
D|-5\6-6-6-6-6-6-6-6-6|
A|--------------------|
E|--------------------|
(Fades out)
Comments