Franz Ferdinand - This Fire Chords & Tabs

 

This Fire Chords & Tabs

Franz Ferdinand Chords & Tabs

Version: 4 Type: Tab 0 ratings
1 star 2 stars 3 stars 4 stars 5 stars
comments

This Fire Tab

play 5 times
---1 1--xx--3 3--xx--5 5--xx--10 10--xx--3 3--xx--5 5--xx--6 6--xx--12 12-|
---3 3--xx--5 5--xx--6 6--xx--10 10--xx--3 3--xx--6 6--xx--7 7--xx--11 11-|
---2 2--xx--4 4--xx--7 7--xx--10 10--xx--3 3--xx--7 7--xx--8 8--xx--12 12-|
--------------------------------------------------------------------------|
--------------------------------------------------------------------------|
--------------------------------------------------------------------------|
[ Tab from: http://www.guitartabs.cc/tabs/f/franz_ferdinand/this_fire_tab_ver_4.html ]
on the sixth do this
---1 1--xx--3 3--xx--5 5--xx--10 10-----7-------5-----|
---3 3--xx--5 5--xx--6 6--xx--10 10-----8-------6-----|
---2 2--xx--4 4--xx--7 7--xx--10 10-----9--8x---7--8x-|
----------------------------------------9-------7-----|
----------------------------------------7-------5-----|
----------------------------------------0-------------|


------------------------------------------------------------ |
---6 6--6 6--6 6--6 6--------------------------------------- |
---7 7--7 7--7 7--7 7---------------------------------------.|
---7 7--7 7--7 7--7 7--8 8----8 8----8 8----8 x---8---------.|
---5 5--5 5--5 5--5 5--8 8----8 8----8 8----8 x---8--------- |
-----------------------6 6----6 6----6 6----6 x---6--------- |


Thats pretty much the whole song, it repeats those rifts throughout the song.

My email is kbfirebreather@gmail.com  so if you have any comments or concerns, lemme know! thx.
Comments