Franz Ferdinand - This Fire Chords & Tabs

 

This Fire Chords & Tabs

Franz Ferdinand Chords & Tabs

Version: 3 Type: Tab 0 ratings
1 star 2 stars 3 stars 4 stars 5 stars
comments

This Fire Tab

Band - Franz Ferdinand
Song - This Fire

Tuning: - Drop D

 Verse:
|--1-1-----3-3-----5-5------10--10----3-3-----5-5-----6-6--15--15--------------|
|--3-3-x-x-5-5-x-x-6-6-x-x--10--10----5-5-x-x-6-6-x-x-8-8--15--15--------------|
|------------------------------------------------------------------------------|
|------------------------------------------------------------------------------|
|------------------------------------------------------------------------------|
|------------------------------------------------------------------------------|

 Prechorus:
|------------------------------------------------------------------------------|
|------------------------------------------------------------------------------|
|------------------------------------------------------------------------------|
|------------------------------------------------------------------------------|
|-2-2-2-2-2-2-2-2--0-0-0-0-0-0-0-0---------------------------------------------|
|-2-2-2-2-2-2-2-2--0-0-0-0-0-0-0-0---------------------------------------------|

 Chorus:			  (Guitar 1)
|-------------------1-1-1-1-1-1-1-1--------------------------------------------|
|--5-5-5-5-5-5-5-5--3-3-3-3-3-3-3-3--------------------------------------------|
|--2-2-2-2-2-2-2-2--2-2-2-2-2-2-2-2--------------------------------------------|
|--2-2-2-2-2-2-2-2--0-0-0-0-0-0-0-0--------------------------------------------|
|------------------------------------------------------------------------------|
|------------------------------------------------------------------------------|


				  (Guitar 1)
|------------------------------------------------------------------------------|
|------------------------------------------------------------------------------|
|---7-7---7-7--7-7--7-7--------------------------------------------------------|
|---7-7---7-7--7-7--7-7---8-8--8-8--8-8--8-8-----------------------------------|
|---5-5---5-5--5-5--5-5---8-8--8-8--8-8--8-8--7--------------------------------|
|---0-0---0-0--0-0--0-0---8-8--8-8--8-8--8-8-----------------------------------|

Interlude:
|------------------------------------------------------------------------------|
|------------------------------------------------------------------------------|
|------------------------------------------------------------------------------|
|-------------------------------------------------------5----------------------|
|---3-5-3-3-5-3-5-3------------------------------------------------------------|
|------------------------------------------------------------------------------|


Break down

|------------------------------------------------------------------------------|
|------------------------------------------------------------------------------|
|------------------------------------------------------------------------------|
|---4-4-4-4-4-4-4-4-4-4-4-0----------------------------------------------------|
|---4-4-4-4-4-4-4-4-4-4-4-0----------------------------------------------------|
|---4-4-4-4-4-4-4-4-4-4-4-0----------------------------------------------------|
[ Tab from: http://www.guitartabs.cc/tabs/f/franz_ferdinand/this_fire_tab_ver_3.html ]
|------------------------------------------------------------------------------|
|------------------------------------------------------------------------------|
|-----------4-2----------------------------------------------------------------|
|---2-----------5-4------------------------------------------------------------|
|-------------------2-2--------------------------------------------------------|
|------------------------------------------------------------------------------|

				(Guitar 2)
|--7-7---7-7---7-7---7-7-------------------------------------------------------|
|--8-8---8-8---8-8---8-8-------------------------------------------------------|
|--9-9---9-9---9-9---9-9-------------------------------------------------------|
|------------------------------------------------------------------------------|
|------------------------------------------------------------------------------|
|------------------------------------------------------------------------------|

				(Guitar 1)
|------------------------------------------------------------------------------|
|------------------------------------------------------------------------------|
|------------------------------------------------------4-4-4-4-4-4-4-4-4-------|
|------------------------------------------------------4-4-4-4-4-4-4-4-4-------|
|---7-7-7-7-7-7-7-6-6-6-6-6-6-6-6-6-6-5-5-5-5-5-5-5-5--2-2-2-2-2-2-2-2-2-------|
|------------------------------------------------------------------------------|

 Verse:
|--1-1-----3-3-----5-5------10--10----3-3-----5-5-----6-6--15--15--------------|
|--3-3-x-x-5-5-x-x-6-6-x-x--10--10----5-5-x-x-6-6-x-x-8-8--15--15--------------|
|------------------------------------------------------------------------------|
|------------------------------------------------------------------------------|
|------------------------------------------------------------------------------|
|------------------------------------------------------------------------------|

|------------------------------------------------------------------------------|
|------------------------------------------------------------------------------|
|------------------------------------------------------------------------------|
|------------------------------------------------------------------------------|
|-2-2-2-2-2-2-2-2--0-0-0-0-0-0-0-0---------------------------------------------|
|-2-2-2-2-2-2-2-2--0-0-0-0-0-0-0-0---------------------------------------------|

 Chorus:			  (Guitar 1)
|-------------------1-1-1-1-1-1-1-1--------------------------------------------|
|--5-5-5-5-5-5-5-5--3-3-3-3-3-3-3-3--------------------------------------------|
|--2-2-2-2-2-2-2-2--2-2-2-2-2-2-2-2--------------------------------------------|
|--2-2-2-2-2-2-2-2--0-0-0-0-0-0-0-0--------------------------------------------|
|------------------------------------------------------------------------------|
|------------------------------------------------------------------------------|


				  (Guitar 1)
|------------------------------------------------------------------------------|
|------------------------------------------------------------------------------|
|---7-7---7-7--7-7--7-7--------------------------------------------------------|
|---7-7---7-7--7-7--7-7---8-8--8-8--8-8--8-8-----------------------------------|
|---5-5---5-5--5-5--5-5---8-8--8-8--8-8--8-8--7--------------------------------|
|---0-0---0-0--0-0--0-0---8-8--8-8--8-8--8-8-----------------------------------|

Interlude:
|-----------------------------17b----------------------------------------------|
|--15b--------17b------18b-----------------------------------------------------|
|------------------------------------------------------------------------------|
|------------------------------------------------------------------------------|
|------------------------------------------------------------------------------|
|------------------------------------------------------------------------------|

End:
|-----|
|-----|
|--7--|
|--7--|
|--5--|
|-----|
Comments