Franz Ferdinand - This Fire Chords & Tabs

 

This Fire Chords & Tabs

Franz Ferdinand Chords & Tabs

Version: 2 Type: Bass Tab 0 ratings
1 star 2 stars 3 stars 4 stars 5 stars
comments

This Fire Bass Tab

   
This Fffire(video/single)
Bass
Standard Tuning

By: Adrian Stone

Intro 
G|-----------------------------------|
D|------3-55-55-55-55---------------|
A|-----5-------------0-3-55-55-55-555|
E|-----------------------------------|

First Verse
G|--------------------------------|
D|--3-55-55-55-55-----------------|
A|----------------0-3-55-55-55-555|
E|--------------------------------|   x3

Prechorus 
G|--------------------------------|
D|--------------------------------|
A|-7-7-7-7-7-7-7-7-5-5-5-5-5-5-5-5|
E|--------------------------------|

First Chorus
G|--------------------------------|
D|--------------------------------|
A|-5-5-5-5-5-5-5-5---------------7|
E|-----------------6-6-6-6-6-6-6--|   x2

G|--------------------------------------------------------|
D|--------------------------------------------------------|
A|-5-5-5-5-5-5-5-5-8-8-8-8-8-8-8-8-12-12-12-12-12-12-12-12|
E|--------------------------------------------------------|

Second Verse
G|-------------|
D|------------|
A|55-55-55-555|
E|-------------|

G|-----------------------------|
D|-3-55-55-55-55---------------|
A|-------------0-3-55-55-55-555|
E|-----------------------------|   x4

Second Chorus
G|--------------------------------|
D|--------------------------------|
A|-5-5-5-5-5-5-5-5---------------7|
E|-----------------6-6-6-6-6-6-6--|   x2
[ Tab from: http://www.guitartabs.cc/tabs/f/franz_ferdinand/this_fire_btab_ver_2.html ]
Bridge
G|--------------------------------|
D|--------------------------------|
A|-5-5-5-5-5-5-5-5/9-9-9-9-9-9-9-9|
E|--------------------------------|


G|--------------------------------|
D|--------------------------------|
A|-7-7-7-7-7-7-7-7----------------|   x2 
E|-----------------7-7-7-7-7-7-7-7|

G|----------------------------------------------------------|
D|----------------------------------------------------------|
A|-7-7-7-7-7-7-7-7-6-6-6-6-6-6-6-6-5-5-5-5-5-5-5-5----------|
E|-------------------------------------------------777777777|

Third Verse
G|------------------------------------|
D|-----3-55-55-55-55-----------------|
A|----5---------------0-3-55-55-55-555|
E|------------------------------------|

G|------------------------------------------------|
D|3-55-55-55-55----------------3-55-55-55-55------|
A|--------------0-3-55-55-55-555-------------0-3/7|
E|------------------------------------------------|

Prechorus
G|--------------------------------|
D|--------------------------------|
A|-7-7-7-7-7-7-7-7-5-5-5-5-5-5-5-5|
E|--------------------------------|

Third Chorus
G|--------------------------------|
D|--------------------------------|
A|-5-5-5-5-5-5-5-5---------------7|
E|-----------------6-6-6-6-6-6-6--|   x4

Last Verse
G|----------------------------------------------------------------|
D|-------------3-55-55-55-55------------------3-55-55-55-55------|
A|-55-55-55-555---------------0-3-55-55-55-555---------------0-3-5|
E|----------------------------------------------------------------|
Comments