Franz Ferdinand - This Fire Chords & Tabs

 

This Fire Chords & Tabs

Franz Ferdinand Chords & Tabs

Version: 1 Type: Bass Tab 0 ratings
1 star 2 stars 3 stars 4 stars 5 stars
comments

This Fire Bass Tab

HI everyone. This is one of my favorit songs. Seeing as no on ehas tabbed out a bass
line for it, this is waht i have tabbed out by ear and played with the song, it sounds
good. ENJOY
riffx5
G----------------------------------------------------------|
D----------------------------------------------------------|
A---55----55---55---558--10-10----10-10----10-10----10-108-|
E----------------------------------------------------------|
[ Tab from: http://www.guitartabs.cc/tabs/f/franz_ferdinand/this_fire_btab.html ]
after 5th riff part 2 played play this once
G---------------------------------------------------------|
D---------------------------------------------------------|
A--7-7-7-7-7-7-7-7--5-5-5-5-5-5-5-5-----------------------|
E---------------------------------------------------------|
Chorus x4
G---------------------------------------------------------|
D---------------------88--88--88--88----------------------|
A--55---55---55--558----------------8-55--55--55-55-------|
E---------------------------------------------------------|

Riff how ever many times
Riff part 2 x1
Chorus x4
riif part3 x1
G---------------------------------------------------------|
D---------------------------------------------------------|
A--9-9-9-9-9-9-9-9--7-7-7-7-7-7-7-7-----------------------|
E---------------------------------------------------------|

Riff how ever many times
after that there is a bit that i dont know but will be comming soon
Bass Break
Riff

I hope this helps. Sounds Excelent
Comments