Franz Ferdinand - This Boy Chords & Tabs

 

This Boy Chords & Tabs

Franz Ferdinand Chords & Tabs

Version: 2 Type: Tab

This Boy Tab

Tabbed by JCG

Hi all,

This song is quite easy, all the following elements should allow you
to play it quickly. Take care to rythm/beat and light differences between
some sequences, just listen to CD and enjoy!

Cheers

JC


Intro

Guitar 1
--------------------------------------------------------------------------------------|
--------------------------------------------------------------------------------------|
-7-9--11-9-7--7-9--11-9-7--6-7--9-7-6--6-7-9------------------------------------------|
--------------------------------------------------------------------------------------|
--------------------------------------------------------------------------------------|
--------------------------------------------------------------------------------------|

Guitar 1 + 2

--------------------------------|----------------------|---------------------------------|
--------------------------------|----------------------|---------------------------------|
--------------------------------|----------------------|---------------------------------|
--------------------------------|----------------------|---------------------------------|
-----2-5-2--------2-5-2----(2x)-|---2-5-2------2-5-2---|-----2-5-2-------2-5-2-----------|
-1-2-------1-2------------------|-3-------3-0--------3-|-1-2-------1-2-------------------|


Verse

Guitar 1
[ Tab from: http://www.guitartabs.cc/tabs/f/franz_ferdinand/this_boy_tab_ver_2.html ]
               (I)                             (II)                             (III)
------------------------------------|-------------------------------|---------------------------|
------------------------------------|-------------------------------|---------------------------|
------------------------------------|-------------------------------|-2-4-2-4-------------(*)---|
------------------------------------|---------------0-2--2-0-2-0-2--|---------------------------|
-2-0-2---2---2-0-2---2-0-2-0-2-(2x)-|--2-0-2--2--2------------------|----------2--2-0-2-2-....--|
------------------------------------|-------------------------------|---------------------------|

* : verse is a simple combination of the three parts, listen to the song

Guitar 2


---7--7--7-7..------------------------------------------------------------------------|
---7--7--7-7..------------------------------------------------------------------------|
---7--7--7-7..------------------------------------------------------------------------|
--------------------------------------------------------------------------------------|
-------------------5-sl-7-------------------------------------------------------------|
----------------3---------------------------------------------------------------------|


Bridge

--------------------------------------------------------------------------------------|
--------5-----------------------------------------------------------------------------|
-4--7-4---7-4-------------------------------------------------------------------------|
--------------7----(6x)---------------------------------------------------------------|
--------------------------------------------------------------------------------------|
--------------------------------------------------------------------------------------|

Chorus

--------------------------------------------------------------------------------------|
--------------------------------------------------------------------------------------|
--------------------------------------------------------------------------------------|
--------------------------------------------------------------------------------------|
-----2-5-2------2-5-2-----------------------------------------------------------------|
-1-2-------1-2------------------------------------------------------------------------|