Franz Ferdinand - The Outsiders Chords & Tabs

 

The Outsiders Chords & Tabs

Franz Ferdinand Chords & Tabs

Version: 1 Type: Bass Tab

The Outsiders Bass Tab

   
Artist: Franz Ferdinand
Song:   Outsiders
Album: You Could Have It So Much
Tuning: Standard
Bassist: Bob Hardy
Tabbed by: Mike Thompson (mikethecoug)
Email: mike@thebrokensurface.net

Notes: I know it's not one hundred percent, but it does it for me and it's fun to play
along to. Also, bob definitely plays notes on the A string in the main riff because i
saw them live in Manchester, and saw he was doing some sort of hammer on-esque thing.

Rate fairly! And have fun!

Key:
h - hammer on
: - repeat
/ - slide
^ - bend

Bass enters 00:07

Intro
G|-----|
D|-----|
A|-----|
E|-12/-|
[ Tab from: http://www.guitartabs.cc/tabs/f/franz_ferdinand/the_outsiders_btab.html ]
Verses
G|------------|------------|---9--9-|
D|:-9-----9--:|:-7-----7--:|--------|
A|:---8h9----:|:---6h7----:|-7---7--|
E|-7----------|-5----------|--------|

(It's bright on the outside..)
G|--------------|--------------|
D|:------------:|:------------:|
A|:-7--77-7----:|:-5--55-5----:|
E|---7------7---|---5------5---|

Bridge (When you saw me sleeping..)
G|-------|-------|-------|
D|:-----:|:-----:|:-----:|
A|:-----:|:-----:|:-----:|
E|--7^---|--5^---|--4^---|

G|------------|------------|---9--9-|
D|:-9-----9--:|:-7-----7--:|--------|
A|:---8h9----:|:---6h7----:|-7---7--|
E|-7----------|-5----------|--------|

Outro
G|------------|------------|---9--9-|
D|:-9-----9--:|:-7-----7--:|--------|
A|:---8h9----:|:---6h7----:|-7---7--|
E|-7----------|-5----------|--------|