Franz Ferdinand - Tell Her Tonight Chords & Tabs

 

Tell Her Tonight Chords & Tabs

Franz Ferdinand Chords & Tabs

Version: 3 Type: Tab 0 ratings
1 star 2 stars 3 stars 4 stars 5 stars
comments

Tell Her Tonight Tab

   
TITLE : Tell Her Tonight
BAND : Franz Ferdinand
Tabbed by : detroit_cobra
E-mail : cafedevil@hotmail.com

Intro :

e|-7-7-7-7-9-10-9-7--7-7-7-------------|
B|-8-8-8-------------8-8-8-8-11-10-8-7-|
G|-9-9-9-------------9-9-9-------------|
D|-------------------------------------|
A|-------------------------------------|
E|-------------------------------------|  (X2)

VERSE :
e|-7-7-7-7-9-10-9-7--7-7-7------------|
B|-8-8-8-------------8-8-8--11-10-8-7-|
G|-9-9-9-------------9-9-9------------|
D|------------------------------------|
A|------------------------------------|
E|------------------------------------|  (X4)

CHORUS :
just play this one chord where he sings 'gonna have to tell her tonight.'
e|-5-|
B|-5-|
G|-6-|
D|-7-|
A|---|
E|---|

Then repeat the verse x4.

Then theres this bridge,where hes singing 'hey have to tell her,
tell her tonight yeah'. it uses the chords G and Bb with this riff underneath :
[ Tab from: http://www.guitartabs.cc/tabs/f/franz_ferdinand/tell_her_tonight_tab_ver_3.html ]
e|-------------------------------------x-x----x-x-----------------|
B|-----x-x-3--x-x------x-x--3---x-x----x-x----x-x-6--x-x--6---x-x-|
G|---4-x-x--4-x-x----4-x-x----4-x-x--7-------7-----7-x-x----7-x-x-|
D|-5---------------5----------------8------8----------------------|
A|----------------------------------------------------------------|
E|----------------------------------------------------------------|(x2)

the third verse just uses the chord :
e|-7-|
B|-8-|
G|-9-|
D|-9-|
A|---|
E|---|    Listen to the song for the timing!

And then it goes back to the bridge.
then it ends with this riff,with the same timing and words as the bridge.

e|-----------------------------------------------------------------|
B|-----x-x-3--x-x------x-x--3---x-x----x-x-6---x-x-----x-x--6---x-x|
G|---4-x-x--4-x-x----4-x-x----4-x-x--7-x-x---7-x-x---7-x-x----7-x-x|
D|-5---------------5----------------8--------------8---------------|
A|-----------------------------------------------------------------|
E|-----------------------------------------------------------------|

e|-------------------------------------------|
B|-------x-x-9----x-x-------x-x-9----x-x-----|
G|----10-x-x---10-x-x----10-x-x---10-x-x---8-|
D|-11------------------11--------------------|
A|-------------------------------------------|
E|-------------------------------------------|

yay! thats my first tab! hope you enjoy it.
Comments