Franz Ferdinand - Take Me Out Chords & Tabs

 

Take Me Out Chords & Tabs

Franz Ferdinand Chords & Tabs

Version: 7 Type: Tab 0 ratings
1 star 2 stars 3 stars 4 stars 5 stars
comments

Take Me Out Tab

   
-------------------------------------------------------------------------------
			     SONG NAME - Band Name
-------------------------------------------------------------------------------
Tabbed by:  Aaron Elsey	

Email:  amelsey@msn.com		

Tuning:  Standard 

I could not find a decent tab for this anywhere so I made one myself.  This is note for
note.  I gave up on the lyrics mid-way through and just put them on the bottom.  The tab
is in the exact order of the song.  Some of the notes are one string instead of power
chords or octaves, but it sounds better this way if you are playing by yourself. Have
fun.  

Intro: 

e|-------------------------------------------------------------------------|
B|-------------------------------------------------------------------------|
G|-------------------------------------------------------------------------|
D|7-7-7--7-7-7-7-7-7-7-7-7-7-7-7-7-7-7-7-7-7-7-7-7-7-7-7-7-7-7-7-7-7-7-7---|
A|5-5-5--5-5-5-5-5-5-5-5-5-5-5-5-5-5-5-5-5-5-5-5-5-5-5-5-5-5-5-5-5-5-5-5---|
E|------------------------------------------------------|------------------|
                                                            So if your 
e|-------------------------------------------------------------------------|
B|-------------------------------------------------------------------------|
G|12-12-12-12-12-12-12-11-11-11-11-11-11-11-11--16-16-16--14-14-14-12-12-12|
D|-------------------------------------------------------------------------|
A|10-10-10-10-10-10-10--9--9--9--9--9--9--9--9--14-14-14--12-12-12-10-10-10|
E|-------------------------------------------------------------------------|
e|-------------------------------------------------------------------------|
B|-------------------------------------------------------------------------|
G|12-12-12-12--------------------------------------------------------------|
D|-------------------------------------------------------------------------|
A|10-10-10-10--------------------------------------------------------------|
E|-------------------------------------------------------------------------|
  Lonely                        I    will  be   here        waiting for  you 
 
  I'm just a  

  Cross    hair                 I'm   just a    shot        away  from   you

  And if you 

  Leave here                    I  will   be    broken      shattered I  lie 

  I'm just a 

  Cross    hair                 I'm   just      assured     that we can  die
e|-------------------------------------------------------------------------|
B|-------------------------------------------------------------------------|
G|-------------------------------------------------------------------------|
D|-------------------------------------------------------------------------|
A|10-10-10-10-12-12-12-7-7-7-7-7-7-7-7---5--5-5-7-7-5-7--0-0-0-0-0-0-0-----|
E|-------------------------------------------------------------------------|
  Oooohhhhhhhhoooohhhhhoooooooooohhhhh
e|-------------------------------------------------------------------------|
B|-------------------------------------------------------------------------|
G|-------------------------------------------------------------------------|
D|-----------------7-7-7-7-7-7-7-7-------------------5-5-5-5-5-5-5-5-------|
A|5-5-5-5-5-5-5-5--5-5-5-5-5-5-5-5--3-3-3-3-3-3-3-3--3-3-3-3-3-3-3-3-------|
E|3-3-3-3-3-3-3-3-------------------1-1-1-1-1-1-1-1------------------------|
  I      know      I    won't  be   leaving   here          With you
e|-------------------------------------------------------------------------|
B|-------------------------------------------------------------------------|
G|-------------------------------------------------------------------------|
D|9-9-9-9-9-9-9-9-9-9-9-9-9-9-9-9--9--9--9--9--9--9--9--9--9--9--9--9--9--9|
A|7-7-7-7-7-7-7-7-7-7-7-7-7-7-7-7--7--7--7--7--7--7--7--7--7--7--7--7--7--7|
E|0-0-0-0-0-0-0-0-0-0-0-0-0-0-0-0--0--0--0--0--0--0--0--0--0--0--0--0--0--0|

e|-------------------------------------------------------------------------|
B|-------------------------------------------------------------------------|
G|-------------------------------------------------------------------------|
D|9--9---------------------------------------------------------------------|
A|7--7---------------------------------------------------------------------|
E|0--0---------------------------------------------------------------------|




Riff 1:		2X
e|-------------------------------------------------------------------------|
B|-------------------------------------------------------------------------|
G|-------------------------------------------------------------------------|
D|9---9---9---9-9-9-9--7---9---9---9---9-9-9-9--7--------------------------|
A|7---7---7---7-7-7-7--5---7---7---7---7-7-7-7--5--------------------------|
E|-------------------------------------------------------------------------|




Riff 2:  		2 X	
(guitar 1)
e|-------------------------------------------------------------------------|
B|-8------------------------8------------------------8---------------------|
G|---9--9-p7----7-9-----------9--9-p7----7-9-----------9--9-p7----7-9------|
D|-----------h9-----------------------h9-----------------------h9----------|
A|-------------------------------------------------------------------------|
E|-------------------------------------------------------------------------|

e|-------------------------------------------------------------------------|
B|-7-7-7-7-7-7-7-7-7-7-----------------------------------------------------|
G|---------------------7-7-7-7---------------------------------------------|
D|-------------------------------------------------------------------------|
A|-------------------------------------------------------------------------|
E|-------------------------------------------------------------------------|

(guitar 2)
e|-------------------------------------------------------------------------|
B|7-7-7-7---7-7-7-7---7-9-9---7-7-7-7---7-7-7-7---7-9-9---5-5-5-5---5-5-5-5|
G|-------------------------------------------------------------------------|
D|5-5-5-5---5-5-5-5---5-7-7---5-5-5-5---5-5-5-5---5-7-7---3-3-3-3---3-3-3-3|
A|-------------------------------------------------------------------------|
E|-------------------------------------------------------------------------|

e|-------------------------------------------------------------------------|
B|--5-5-5---7-7-7-7---7-7-7-7---7-7-7--------------------------------------|
G|-------------------------------------------------------------------------|
D|--3-3-3---5-5-5-5---5-5-5-5---5-5-5--------------------------------------|
A|-------------------------------------------------------------------------|
E|-------------------------------------------------------------------------|




Riff 3		2X
(guitar 2 only)
e|-------------------------------------------------------------------------|
B|7-7-7-7---7-7-7-7---7-9-9---7-7-7-7---7-7-7-7---7-9-9---5-5-5-5---5-5-5-5|
G|-------------------------------------------------------------------------|
D|5-5-5-5---5-5-5-5---5-7-7---5-5-5-5---5-5-5-5---5-7-7---3-3-3-3---3-3-3-3|
A|-------------------------------------------------------------------------|
E|-------------------------------------------------------------------------|

e|-------------------------------------------------------------------------|
B|--5-5-5---7-7-7-7---7-7-7-7---7-7-7--------------------------------------|
G|-------------------------------------------------------------------------|
D|--3-3-3---5-5-5-5---5-5-5-5---5-5-5--------------------------------------|
A|-------------------------------------------------------------------------|
E|-------------------------------------------------------------------------|
                  



Riff 2 (again):	1 X  
(guitar 1)
e|-------------------------------------------------------------------------|
B|-8------------------------8------------------------8---------------------|
G|---9--9-p7----7-9-----------9--9-p7----7-9-----------9--9-p7----7-9------|
D|-----------h9-----------------------h9-----------------------h9----------|
A|-------------------------------------------------------------------------|
E|-------------------------------------------------------------------------|
[ Tab from: http://www.guitartabs.cc/tabs/f/franz_ferdinand/take_me_out_tab_ver_7.html ]
e|-------------------------------------------------------------------------|
B|-7-7-7-7-7-7-7-7-7-7-----------------------------------------------------|
G|---------------------7-7-7-7---------------------------------------------|
D|-------------------------------------------------------------------------|
A|-------------------------------------------------------------------------|
E|-------------------------------------------------------------------------|
(guitar 2)
e|--------------------------------------------------------------------------|
B|7-7-7-7---7-7-7-7---7-9-9---7-7-7-7---7-7-7-7---7-9-9---5-5-5-5---5-5-5-5|
G|-------------------------------------------------------------------------|
D|5-5-5-5---5-5-5-5---5-7-7---5-5-5-5---5-5-5-5---5-7-7---3-3-3-3---3-3-3-3|
A|--------------------------------------------------------------------------
E|-------------------------------------------------------------------------|

e|-------------------------------------------------------------------------|
B|--5-5-5---7-7-7-7---7-7-7-7---7-7-7--------------------------------------|
G|-------------------------------------------------------------------------|
D|--3-3-3---5-5-5-5---5-5-5-5---5-5-5--------------------------------------|
A|-------------------------------------------------------------------------|
E|-------------------------------------------------------------------------|






Riff 4	2 X
e|-----7-------7----------7-------7----------7-------7---------------------|
B|7-H8----7-H8-------7-H8----7-H8-------7-H8----7-H8--------7-H8----7-H8---|
G|---------------9------------------9------------------9---------7------7-7|
D|-------------------------------------------------------------------------|
A|-------------------------------------------------------------------------|
E|-------------------------------------------------------------------------|




Riff 1:	1X
e|-------------------------------------------------------------------------|
B|-------------------------------------------------------------------------|
G|-------------------------------------------------------------------------|
D|9---9---9---9-9-9-9--7---9---9---9---9-9-9-9--7--------------------------|
A|7---7---7---7-7-7-7--5---7---7---7---7-7-7-7--5--------------------------|
E|-------------------------------------------------------------------------|



Riff 5 (CHORUS):  	4 X
e|-------------------------------------------------------------------------|
B|-10-10-X-X-10--------10-10-X-X-10-------10-10-X-X-10-------10-10-X-X-10--|
G|--9--9-X-X--9---------9--9-X-X--9--------9--9-X-X--9--------9--9-X-X--9--|
D|--7--7-X-X--7---------7--7-X-X--7--------7--7-X-X--7--------7--7-X-X--7--|
A|-------------------------------------------------------------------------|
E|-------------------------------------------------------------------------|




Riff 2:		1X
(guitar 1)
e|-------------------------------------------------------------------------|
B|-8------------------------8------------------------8---------------------|
G|---9--9-p7----7-9-----------9--9-p7----7-9-----------9--9-p7----7-9------|
D|-----------h9-----------------------h9-----------------------h9----------|
A|-------------------------------------------------------------------------|
E|-------------------------------------------------------------------------|

e|-------------------------------------------------------------------------|
B|-7-7-7-7-7-7-7-7-7-7-----------------------------------------------------|
G|---------------------7-7-7-7---------------------------------------------|
D|-------------------------------------------------------------------------|
A|-------------------------------------------------------------------------|
E|-------------------------------------------------------------------------|

(guitar 2)
e|-------------------------------------------------------------------------|
B|7-7-7-7---7-7-7-7---7-9-9---7-7-7-7---7-7-7-7---7-9-9---5-5-5-5---5-5-5-5|
G|-------------------------------------------------------------------------|
D|5-5-5-5---5-5-5-5---5-7-7---5-5-5-5---5-5-5-5---5-7-7---3-3-3-3---3-3-3-3|
A|-------------------------------------------------------------------------|
E|-------------------------------------------------------------------------|

e|-------------------------------------------------------------------------|
B|--5-5-5---7-7-7-7---7-7-7-7---7-7-7--------------------------------------|
G|-------------------------------------------------------------------------|
D|--3-3-3---5-5-5-5---5-5-5-5---5-5-5--------------------------------------|
A|-------------------------------------------------------------------------|
E|-------------------------------------------------------------------------|




Riff 4		3X   On the last time, don't play the last four notes.
e|-----7-------7----------7-------7----------7-------7---------------------|
B|7-H8----7-H8-------7-H8----7-H8-------7-H8----7-H8--------7-H8----7-H8---|
G|---------------9------------------9------------------9---------7------7-7|
D|-------------------------------------------------------------------------|
A|-------------------------------------------------------------------------|
E|-------------------------------------------------------------------------|




Riff 2:		1X		
(guitar 1)
e|-------------------------------------------------------------------------|
B|-8------------------------8------------------------8---------------------|
G|---9--9-p7----7-9-----------9--9-p7----7-9-----------9--9-p7----7-9------|
D|-----------h9-----------------------h9-----------------------h9----------|
A|-------------------------------------------------------------------------|
E|-------------------------------------------------------------------------|

e|-------------------------------------------------------------------------|
B|-7-7-7-7-7-7-7-7-7-7-----------------------------------------------------|
G|---------------------7-7-7-7---------------------------------------------|
D|-------------------------------------------------------------------------|
A|-------------------------------------------------------------------------|
E|-------------------------------------------------------------------------|

(guitar 2)
e|-------------------------------------------------------------------------|
B|7-7-7-7---7-7-7-7---7-9-9---7-7-7-7---7-7-7-7---7-9-9---5-5-5-5---5-5-5-5|
G|-------------------------------------------------------------------------|
D|5-5-5-5---5-5-5-5---5-7-7---5-5-5-5---5-5-5-5---5-7-7---3-3-3-3---3-3-3-3|
A|-------------------------------------------------------------------------|
E|-------------------------------------------------------------------------|

e|-------------------------------------------------------------------------|
B|--5-5-5---7-7-7-7---7-7-7-7---7-7-7--------------------------------------|
G|-------------------------------------------------------------------------|
D|--3-3-3---5-5-5-5---5-5-5-5---5-5-5--------------------------------------|
A|-------------------------------------------------------------------------|
E|-------------------------------------------------------------------------|





Riff 1:		1 X
e|-------------------------------------------------------------------------|
B|-------------------------------------------------------------------------|
G|-------------------------------------------------------------------------|
D|9---9---9---9-9-9-9--7---9---9---9---9-9-9-9--7--------------------------|
A|7---7---7---7-7-7-7--5---7---7---7---7-7-7-7--5--------------------------|
E|-------------------------------------------------------------------------|





Riff 5 (CHORUS):  	4 X
e|-------------------------------------------------------------------------|
B|-10-10-X-X-10--------10-10-X-X-10-------10-10-X-X-10-------10-10-X-X-10--|
G|--9--9-X-X--9---------9--9-X-X--9--------9--9-X-X--9--------9--9-X-X--9--|
D|--7--7-X-X--7---------7--7-X-X--7--------7--7-X-X--7--------7--7-X-X--7--|
A|-------------------------------------------------------------------------|
E|-------------------------------------------------------------------------|




Last riff:		LET THE LAST NOTE RING
e|-------------------------------------------------------------------------|
B|-------------------------------------------------------------------------|
G|-------------------------------------------------------------------------|
D|9---9---9---9-9-9-9--7---9---9---9---9-9-9-9--7---9---9---9--9-9-9-9--7-9|
A|7---7---7---7-7-7-7--5---7---7---7---7-7-7-7--5---7---7---7--7-7-7-7--5-7|
E|-------------------------------------------------------------------------|



| /  slide up
| \  slide down
| h  hammer-on
| p  pull-off
| ~  vibrato
| +  harmonic
| x  Mute note
===============================================================================
Comments