Franz Ferdinand - Take Me Out Chords & Tabs

 

Take Me Out Chords & Tabs

Franz Ferdinand Chords & Tabs

Version: 4 Type: Bass Tab 0 ratings
1 star 2 stars 3 stars 4 stars 5 stars
comments

Take Me Out Bass Tab

   
-------------------------------------------------------------------------------
			     Take Me Out - Franz Ferdinand
-------------------------------------------------------------------------------

Tabbed By : Jacob Bartlett 
e-mail: acobjoe@subpatch.com

Tuning: Standard EADG

This is allot like some of the other tabs, just higher up on the neck. 
I find it easier to play higher up. 
It's also much easier to play from this tab while you're listening to the song. 
Questions or comments, email me.

Intro (0:00)
G|-9-------9-9-9-9-9-9-9-9-9-9-9-9-9-9-9-9-9-9-9-9-9-9-9-9-9-9-9-9-|
D|-----------------------------------------------------------------|
A|-----------------------------------------------------------------|
E|-----------------------------------------------------------------|

(0:07)
G|-----------------7-7-7-7-7-7-7-7-----------------9-9-9-9-9-9-9-9-|
D|-7-7-7-7-7-7-7-7-----------------5-5-5-5-9-9-9-9-----------------|
A|-----------------------------------------------------------------|
E|-----------------------------------------------------------------| x4

(0:33)
G|-----------------9-9-9-9-9-9-9-9---------------------------------|
D|-5-5-5-5-9-9-9-9-----------------5-5-5-5-7-7-7-7-----------------|
A|-------------------------------------------------7-7-7-7-7-7-7-7-|
E|-----------------------------------------------------------------|
[ Tab from: http://www.guitartabs.cc/tabs/f/franz_ferdinand/take_me_out_btab_ver_4.html ]
(0:40)
G|-----------------7-7-7-7-7-7-7-7-----------------5-5-5-5-5-5-5-5-|
D|-5-5-5-5-5-5-5-5-----------------3-3-3-3-3-3-3-3-----------------|
A|-----------------------------------------------------------------|
E|-----------------------------------------------------------------|

(0:47)
G|---------------Gradually Slowing Down-----------------------------|
D|----------(32x)-------------------------------(16x)---------------|
A|-77777777777777777777777777777777-7-7-7-7-7-7-7-7-7-7-7-7-7-7-7-7-|
E|------------------------------------------------------------------|

(1:04)
G|-------------------------------------------|
D|-------------------------------------------|
A|-7-7-7-7h10-7-7-7-7h10-0-0-0-0h1-2-2-2-2h5-|
E|-------------------------------------------|x8

(2:08)
G|-----------------|------------------------------|
D|-----------------|7-7-5-5-4-4-2-0---------0---0-|
A|-7-7-7-7-7-7-7-7-|----------------3---3---------|
E|-----------------|------------------------------| 2nd half x4

(2:30)
G|-------------------------------------------|
D|-------------------------------------------|
A|-7-7-7-7h10-7-7-7-7h10-0-0-0-0h1-2-2-2-2h5-|
E|-------------------------------------------|x4 then pause on "Come On!" And play once more.

(3:16)
G|-----------------|------------------------------|
D|-----------------|7-7-5-5-4-4-2-0---------0---0-|
A|-7-7-7-7-7-7-7-7-|----------------3---3---------|
E|-----------------|------------------------------| 2nd half x4

(3:39)
G|---------------------------|
D|---------------------------|
A|-7-7-7-7-7-7-7-7-7-7-7-7-7-|
E|---------------------------| Hold the last one out. 

| /  slide up
| \  slide down
| h  hammer-on
| p  pull-off
| ~  vibrato
| +  harmonic
| x  Mute note
===============================================================================
Comments