Franz Ferdinand - Take Me Out Chords & Tabs

 

Take Me Out Chords & Tabs

Franz Ferdinand Chords & Tabs

Version: 3 Type: Bass Tab 0 ratings
1 star 2 stars 3 stars 4 stars 5 stars
comments

Take Me Out Bass Tab

   
Standard Tuning

/ = slide up
h = hammer on
14141414 = 14-14-14-14 not 1-4-1-4


G|------------------------------------------------------------------|
D|-1414141414141414141414141414141414141414141414141414141414141414-|
A|------------------------------------------------------------------|
E|------------------------------------------------------------------|

G|------------------------------------------------------------------|
D|-----------------1212121212121212----------------1414141414141414-|
A|-1212121212121212----------------1010101014141414-----------------|
E|------------------------------------------------------------------| x4

G|------------------------------------------------------------------|
D|-----------------1414141414141414---------------------------------|
A|-1010101012121212----------------1010101012121212-----------------|
E|-------------------------------------------------1212121212121212-|

G|----------------------------------------------------------|
D|-----------------1212121212121212--------1010101010101010-|
A|-1010101010101010----------------88888888-----------------|
E|----------------------------------------------------------|

G|---------------------------------------------------------------|
D|---------------------------------------------------------------|
A|-77777777777777777777777777777777-7--7--7--7--7--7--7--7--7--7-|
E|-----------gradually-slowing-down------------------------------|

G|------------------|
D|------------------|
A|-7--7--7--7--7--7-|
E|------------------|
[ Tab from: http://www.guitartabs.cc/tabs/f/franz_ferdinand/take_me_out_btab_ver_3.html ]
G|-----------------------------------------------------------|
D|-------------------------------7--7--7--7h8--9--9--9--9h12-|
A|-7--7--7--7h10--7--7--7--7h10------------------------------|
E|-----------------------------------------------------------| x5

G|------------------------|
D|------------------------|
A|-7--7--7--7--7--7--7--7-|
E|------------------------|

G|---------------------------------------------|
D|---------------------------------------------|
A|-12-12-10-10-9-9-----------------------------|
E|-----------------12-10-8888-88-8/101010-1010-| x4

G|-----------------------------------------------------------|
D|-------------------------------7--7--7--7h8--9--9--9--9h12-|
A|-7--7--7--7h10--7--7--7--7h10------------------------------|
E|-----------------------------------------------------------| x2

G|-----------------------------------------------------------|
D|-------------------------------7--7--7--7h8-9--------------|
A|-7--7--7--7h10--7--7--7--7h10------------------------------|
E|-----------------------------------------------------------|

G|-----------------------------------------------------------|
D|-------------------------------7--7--7--7h8--9--9--9--9h12-|
A|-7--7--7--7h10--7--7--7--7h10------------------------------|
E|-----------------------------------------------------------| 

G|------------------------|
D|------------------------|
A|-7--7--7--7--7--7--7--7-|
E|------------------------|

G|---------------------------------------------|
D|---------------------------------------------|
A|-12-12-10-10-9-9-----------------------------|
E|-----------------12-10-8888-88-8/101010-1010-| x8

G|------------------------------------------------|
D|------------------------------------------------|
A|-7--7--7--7--7--7--7--7--7--7--7--7--7--7--7--7-|
E|------------------------------------------------|
   I'm not entirely sure about the play out because my version
   Of the song fades out before the end.
Comments