Franz Ferdinand - Take Me Out Chords & Tabs

 

Take Me Out Chords & Tabs

Franz Ferdinand Chords & Tabs

Version: 1 Type: Bass Tab 0 ratings
1 star 2 stars 3 stars 4 stars 5 stars
comments

Take Me Out Bass Tab

Franz Ferdinand-Take me out

Standard tuning EADG

Intro

G------------------------------------------------------------ repeat as
D-------------------------------------------------1414141414- needed then 
A--7(let ring)--77777-99999-1212121212-1414141414------------ play below
E------------------------------------------------------------

G--------------------------------------------------------------
D-----------------------1414141414-----------------------------
A-1212121212-1414141414------------1212121212-1414141414-77777-
E--------------------------------------------------------------

G--------------------------------------------------------------
D---------------------(play the 7's to the tempo of the song)--
A- 99999-1212121212-1414141414-99999-7777777777----------------
E--------------------------------------------------------------

Main Riffs
[ Tab from: http://www.guitartabs.cc/tabs/f/franz_ferdinand/take_me_out_btab.html ]
G-------------------------------------------------------------- repeat as 
D-------------------------------------------------------------- needed then
A-777-0h7-777-0h7-777-0h7-777-0h7-777-------------------------- play below
E--------------------------------------------------------------

G-------------------------------------------------------------- repeat as
D----5---5-----------------5---5------------------------------- needed then 
A-777-777---------5-----777-777---------5---------------------- play below
E---------555-777---------------555-777------------------------

G-------------------------------------------------------------- repeat as
D-9--7--------------------------------------------------------- needed then
A------9--7--7--5-------333-4-555-6---------------------------- play end
E------------------7--5----------------------------------------


to end hold A---7--

Great new band that should go very far, you should all go to see them live!
Comments