Franz Ferdinand - Jacqueline Chords & Tabs

 

Jacqueline Chords & Tabs

Franz Ferdinand Chords & Tabs

Version: 4 Type: Tab

Jacqueline Tab

   
                    Franz Ferdinand  Jacqueline

h - hammer on
p - pull off
b - bend string up
r - release bend
/ - slide up
\ - slide down
x - mute string


INTRO

Guitar 1: SINGER

e|--------------------------------------------------------------|
b|---------------4-4-4------------------------4-4-4-------------|
g|----------5-5-5-----5-5-5--------------5-5-5-----5-5----------|
d|-----5-5-5---------------5-5------5-5-5-------------5-5-------|
a|3-3-3------------------------3-3-3----------------------------|
e|--------------------------------------------------------------|

Guitar 2: LEAD

e|--------------------------------------------------------------|
b|---------------4-4-4------------------------4-4-4-------------|
g|----------5-5-5-----5-5-5--------------5-5-5-----5-5----------|
d|-----5-5-5---------------5-5------5-5-5-------------5-5-------|
a|3-3-3------------------------3-3-3----------------------------|
e|--------------------------------------------------------------|

BREAK 1

Guitar 1: SINGER

e|8-8------8-8------8-8------------x2---------------------------|
b|8-8-6b---8-8-6b---8-8-6b666------x2---------------------------|
g|---8--------8--------8-----8877-x2---------------------------|
d|--------------------------------------------------------------|
a|--------------------------------------------------------------|
e|--------------------------------------------------------------|

Guitar 2: LEAD

e|--------------------------------------------------------------|
b|--------------------------------------------------------------|
g|--------------------------------------------------------------|
d|--------------------10-8---------x2---------------------------|
a|---10---10-10-101010----1010-----x2---------------------------|
e|8-8--8-8--8-8-------------------x2---------------------------|

BREAK 2

Guitar 2: LEAD

e|--------------------------------------------------------------|
a|--------------------------------------------------------------|
g|--------------------------------------------------------------|
d|--------------------------------------------------------------|
a|-------------------8-101110-8---------------------------------|
e|8-8-8-11-8-8-8-1011----------1110-----------------------------|

CHORUS

Guitar 1: SINGER


e|x-x-3-x-x-3-x-3-x-x-3-x-x-3-3-3-----x4------------------------|
b|x-x-4-x-x-4-x-4-x-x-4-x-x-3-3-3-----x4------------------------|
g|x-x-5-x-x-5-x-5-x-x-5-x-x-3-3-3-----x4------------------------|
d|x-x-5-x-x-5-x-5-x-x-5-x-x-3-3-3-----x4------------------------|
a|--------------------------------------------------------------|
e|--------------------------------------------------------------|

Guitar 2: LEAD

e|------------------------------------------------------------------|
b|------------------------------------------------------------------|
g|------------------------------------------------------------------|
d|-------------------------------------------------------8-8--------|
a|----------------------------------------------------------11-10-8-|
e|8-8-8-8-8-8-8-8-1111111010101010-8-8-8-8-8-8-8-8-111111-----------|x4

BRIDGE

Guitar 1: SINGER

e|-3----------------4----------------6--------------------------------|
b|-4----------------4----------------6--------------------------------|
g|-5----------------5----------------7--------------------------------|
d|-5----------------6----------------8--------------------------------|
a|-3----------------6----------------8--------------------------------|
e|--------------------------------------------------------------------|

e|-3----------------4----------------6---------------6----------------|
b|-4----------------4----------------6---------------6----------------|
g|-5----------------5----------------7---------------7----------------|
d|-5----------------6----------------8---------------6----------------|
a|-3----------------6----------------8---------------8----------------|
e|--------------------------------------------------------------------|

e|----------------------------------------|
b|-3--------------------------------------|
g|-4--------------------------------------|
d|-5--------------------------------------|
a|-5--------------------------------------|
e|-3--------------------------------------|

e|-3333333333333333-44444444-66666666|
b|-4444444444444444-44444444-66666666|
g|-5555555555555555-55555555-77777777|
d|-5555555555555555-66666666-88888888|
a|-3333333333333333-66666666-88888888|
e|-----------------------------------|


Guitar 2: LEAD

e|-3333333333333333-4444444444444444-6666666666666666-6666666666666666|
b|-4444444444444444-4444444444444444-6666666666666666-6666666666666666|
g|-5555555555555555-5555555555555555-7777777777777777-7777777777777777|
d|-5555555555555555-6666666666666666-8888888888888888-8888888888888888|
a|-3333333333333333-6666666666666666-8888888888888888-8888888888888888|
e|--------------------------------------------------------------------|

e|-3333333333333333-4444444444444444-6666666666666666-6666666666666666|
b|-4444444444444444-4444444444444444-6666666666666666-6666666666666666|
g|-5555555555555555-5555555555555555-7777777777777777-7777777777777777|
d|-5555555555555555-6666666666666666-8888888888888888-6666666666666666|
a|-3333333333333333-6666666666666666-8888888888888888-8888888888888888|
e|--------------------------------------------------------------------|
[ Tab from: http://www.guitartabs.cc/tabs/f/franz_ferdinand/jacqueline_tab_ver_4.html ]
e|---------------------------------------|
b|3--------------------------------------|
g|4--------------------------------------|
d|5--------------------------------------|
a|5--------------------------------------|
e|3333333333333333-33333333--------------|

e|-3333333333333333-44444444-66666666|
b|-4444444444444444-44444444-66666666|
g|-5555555555555555-55555555-77777777|
d|-5555555555555555-66666666-88888888|
a|-3333333333333333-66666666-88888888|
e|-----------------------------------|

BREAK 1

Guitar 1: SINGER

e|8-8------8-8------8-8------------x2---------------------------|
b|8-8-6b---8-8-6b---8-8-6b666------x2---------------------------|
g|---8--------8--------8-----8877-x2---------------------------|
d|--------------------------------------------------------------|
a|--------------------------------------------------------------|
e|--------------------------------------------------------------|

Guitar 2: LEAD

e|x-x-8-x-x-8-x-8-x-x-8-x-x-6-6-6-------------------------------|
b|x-x-8-x-x-8-x-8-x-x-8-x-x-6-6-6-------------------------------|
g|x-x-8-x-x-8-x-8-x-x-8-x-x-7-7-7-------------------------------|
d|x-x-10x-x-10x-10x-x-10x-x-8-8-8-------------------------------|
a|x-x-10x-x-10x-10x-x-10x-x-8-8-8-------------------------------|
e|--------------------------------------------------------------|

CHORUS

Guitar 1: SINGER

e|x-x-3-x-x-3-x-3-x-x-3-x-x-3-3-3-----x4------------------------|
b|x-x-4-x-x-4-x-4-x-x-4-x-x-3-3-3-----x4------------------------|
g|x-x-5-x-x-5-x-5-x-x-5-x-x-3-3-3-----x4------------------------|
d|x-x-5-x-x-5-x-5-x-x-5-x-x-3-3-3-----x4------------------------|
a|--------------------------------------------------------------|
e|--------------------------------------------------------------|

Guitar 2: LEAD

e|------------------------------------------------------------------|
b|------------------------------------------------------------------|
g|------------------------------------------------------------------|
d|-------------------------------------------------------8-8--------|
a|----------------------------------------------------------11-10-8-|
e|8-8-8-8-8-8-8-8-1111111010101010-8-8-8-8-8-8-8-8-111111-----------|x4

SOLO 1

Guitar 1: SINGER

e|-------------------------------------------------------------------------|
b|--------------------------------4-4-4------------------------4-4-4-------|
g|---------------------------5-5-5-----5-5-5--------------5-5-5-----5-5----|
d|-3---5-6-8------------5-5-5---------------5-5------5-5-5-------------5-5-|
a|-3---5-6-8-------3-3-3------------------------3-3-3----------------------|
e|-1---3-4-6---------------------------------------------------------------|

e|--------------------------------------------------------------|
b|---------------4-4-4------------------------4-4-4-------------|
g|----------5-5-5-----5-5-5--------------5-5-5-----5-5----------|
d|-----5-5-5---------------5-5------5-5-5-------------5-5-------|
a|3-3-3------------------------3-3-3----------------------------|
e|--------------------------------------------------------------|x3

Guitar 2: LEAD

e|-------------------------------------------------------------------------|
b|--------------------------------4-4-4------------------------4-4-4-------|
g|---------------------------5-5-5-----5-5-5--------------5-5-5-----5-5----|
d|-3---5-6-8------------5-5-5---------------5-5------5-5-5-------------5-5-|
a|-3---5-6-8-------3-3-3------------------------3-3-3----------------------|
e|-1---3-4-6---------------------------------------------------------------|

e|--------------------------------------------------------------|
b|---------------4-4-4------------------------4-4-4-------------|
g|----------5-5-5-----5-5-5--------------5-5-5-----5-5----------|
d|-----5-5-5---------------5-5------5-5-5-------------5-5-------|
a|3-3-3------------------------3-3-3----------------------------|
e|--------------------------------------------------------------|x3

SOLO 2

Guitar 1: SINGER

e|x-x-x-x-x-x-x-x-x-x-x-x-x-6-6-6-------------------------------|
b|x-x-x-x-x-x-x-x-x-x-x-x-x-6-6-6-------------------------------|
g|x-x-x-x-x-x-x-x-x-x-x-x-x-7-7-7-------------------------------|
d|x-x-x-x-x-x-x-x-x-x-x-x-x-8-8-8-------------------------------|
a|x-x-x-x-x-x-x-x-x-x-x-x-x-8-8-8-------------------------------|
e|--------------------------------------------------------------|x4

Guitar 2: LEAD

e|x-x-8-x-x-8-x-8-x-x-8-x-x-6-6-6-------------------------------|
b|x-x-8-x-x-8-x-8-x-x-8-x-x-6-6-6-------------------------------|
g|x-x-8-x-x-8-x-8-x-x-8-x-x-7-7-7-------------------------------|
d|x-x-10x-x-10x-10x-x-10x-x-8-8-8-------------------------------|
a|x-x-10x-x-10x-10x-x-10x-x-8-8-8-------------------------------|
e|--------------------------------------------------------------|x4

CHORUS

Guitar 1: SINGER

e|x-x-3-x-x-3-x-3-x-x-3-x-x-3-3-3-----x8------------------------|
b|x-x-4-x-x-4-x-4-x-x-4-x-x-3-3-3-----x8------------------------|
g|x-x-5-x-x-5-x-5-x-x-5-x-x-3-3-3-----x8------------------------|
d|x-x-5-x-x-5-x-5-x-x-5-x-x-3-3-3-----x8------------------------|
a|--------------------------------------------------------------|
e|--------------------------------------------------------------|

Guitar 2: LEAD

e|------------------------------------------------------------------|
b|------------------------------------------------------------------|
g|------------------------------------------------------------------|
d|-------------------------------------------------------8-8--------|
a|----------------------------------------------------------11-10-8-|
e|8-8-8-8-8-8-8-8-1111111010101010-8-8-8-8-8-8-8-8-111111-----------|x8

OUTRO

Guitar 1: SINGER

e|-3---------------|
b|-4---------------|
g|-5---------------|
d|-5---------------|
a|-----------------|
e|-----------------|

Guitar 2: LEAD

e|-8---------------|
b|-8---------------| 
g|-8---------------|
d|-10--------------|
a|-10--------------|
e|-----------------|