Franz Ferdinand - Franz Ferdinand Album Chords & Tabs

 

Franz Ferdinand Album Chords & Tabs

Franz Ferdinand Chords & Tabs

Version: 1 Type: Tab 30 ratings
1 star 2 stars 3 stars 4 stars 5 stars
comments

Franz Ferdinand Album Tab

   
Tracklistings
1. Jacqueline 
2. Tell Her Tonight 
3. Take Me Out 
4. Dark Of The Matinee 
5. Auf Asche 
6. Cheating On You 
7. This Fire 
8. Darts Of Pleasure 
9. Michael 
10. Come On Home 
11. 40ft 




1. Jacqueline

Can't work out the intro, 0:00 - 0:43 as it's too quiet.

Intro Riffs (0:49)
Riff 1:
|---------------------------------------|
|-------------------4-4-4---------------|
|-------------5-5-5-------5-5-5---------|
|-------5-5-5-------------------5-5-5---|
|-3-3-3---------------------------------|
|---------------------------------------|
x2

Riff 2:
|--------------------------------------------------|
|-8-x8-4--6^-8-x8-4-6^--8-x8-4--6^~6~6~-4-4--3-3---|
|--------------------------------------------------|
|--------------------------------------------------|
|--------------------------------------------------|
|--------------------------------------------------|
x2

Riff 3:
|-----------------------------------|
|-----------------------------------|
|-----------------------------------|
|-----------------3-5-6-6-3---------|
|-3-3-3-6--3--5-6-----------6-5-----|
|-----------------------------------|
x4

Chorus:
Cm          A#        G#
It's always better on holiday
Cm      D#        A
So much better on holiday
Cm            A#   G#  Cm       D#       A   
That's why we only work when we need the money


Verse:
Cm
Gregor was down again
    G#
Said, 'Come on, kick me again'
       A#                               A#7    
Said, 'I'm so drunk I don't mind if you kill me'

Cm          G#
Come on you gutless
          A#
Yeah, I'm alive
    A#7
I'm alive
G                   Cm
I'm alive and how I know it
        G#             A#              Cm
But for chips, and for freedom I could die


Solo: (2:23)

|-----------------------------------------|
|-8-x8-4--6^-4---8-x8-4--6~6~6~-4-4-3-3---|
|-----------------------------------------|
|-----------------------------------------|
|-----------------------------------------|
|-----------------------------------------|

Break 1:
|--------------------|
|--------------------|
|--------------------|
|-3--------5--6-8----|
|-3--------5--6-8----|
|-1--------3--4-6----|

Break 2:
|-3-3-x--3-3-x--3-3-x-x----|
|-4-4-x--4-4-x--4-4-x-x----|
|-5-5-x--5-5-x--5-5-x-x----|
|-5-5-x--5-5-x--5-5-x-x----|
|-3-3-x--3-3-x--3-3-x-x----|
|--------------------------|



Intro Riffs
Chorus x2
Verse
Solo
Chorus x2
Break 1
Riff 1 x2
Break 2
CHorus x2


###############################
2. Tell her Tonight 



Intro:
  Em
|-7-7-7-7-9-10-9-7-7-7-------------|
|-8-8-8------------8---10-8-7------|
|-9-9-9------------9----------7----| x2
|-9-9-9------------9---------------|
|-7-7-7------------7---------------|
|----------------------------------|

Verse:
 Em
|-7-7-7-7-9-10-9-7-7-7-------------|
|-8-8-8------------8---10-8-7------|
|-9-9-9------------9----------7----| x4
|-9-9-9------------9---------------|
|-7-7-7------------7---------------|
|----------------------------------|

Chorus:
  A
|----------------------------------|
|-5--------------------------------|
|-6--------------------------------|
|-7--------------------------------|
|-7--------------------------------|
|-5--------------------------------|
(just A thoughout)

Bridge:
  G   A#
|-3---6---------|
|-3---6---------|
|-4---7---------|
|-5---8---------| x2
|-5---8---------|
|-3---6---------|
Then.....
|-3-x-3---------|
|-3-x-3---------|
|-4-x-4---------|
|-5-x-5---------|
|-5-x-5---------|
|-3-x-3---------|

Intro
Verse
Chorus
Verse
Chorus
Bridge
Chorus
Ending one...
New Bridge:
  G   A#  times  c#
|-3---6---|----|-9----11----|
|-3---6---|----|-9----11----|
|-4---7---|----|-10---12----|
|-5---8---|-x1-|-11---13----|
|-5---8---|----|-11---13----|
|-3---6---|----|-9----11----|

##############################
3. Take Me Out



Intro:

guitar 1
|------------------------------------------------------------------------------|
|------------------------------------------------------------------------------|
|-9----------------------------------------------------------------------------|
|-9----------------------------------------------------------------------------|
|-7----------------------------------------------------------------------------|
|------------------------------------------------------------------------------|

Guitar 2
|------------------------------------------------------------------------------|
|------------------------------------------------------------------------------|
|------------------------------------------------------------------------------|
|-------------------------------5------4---------------9----7-----------5------|
|-7-----------------------------7------5---------------10---9-----------7------|
|------------------------------------------------------------------------------|
  guitar 1 (strum) So if you're lonely   You know I'm, here waiting for you 

|------------------------------------------------------------------------------|
|------------------------------------------------------------------------------|
|------------------------------------------------------------------------------|
|-----5-5---------------4--------9----7---------5----------5-5----------4------|
|-----5-7---------------5--------10---9---------7----------5-7----------5------|
|------------------------------------------------------------------------------|
 I'm just a cross-hair   Just a shot away from you   If you leave here   You 

|------------------------------------------------------------------------------|
|------------------------------------------------------------------------------|
|------------------------------------------------------------------------------|
|----------9-------7-----------5--------5-5----------------4--------9----7-----|
|----------10------9-----------7--------5-7----------------5--------10---9-----|
|------------------------------------------------------------------------------|
 leave me broken, shattered I lie   I'm just a cross-hair   Just a shot then 

|------------------------------------------------------------------------------|
|------------------------------------------------------------------------------|
|------------------------------------------------------------------------------|
|--------5-----5-------7-------------------------------------------------------|
|--------7---------------------7-----------5-----7--5-7--2------5--------------|
|------------------------------------------------------------------------------|
 we can die   aaaaaah aaaaaah aaaaaah                   I know I won't be 

|------------------------------------------------------------------------------|
|------------------------------------------------------------------------------|
|------------------------------------------------------------------------------|
|--------------5---------------------------------------------------------------|
|-3------------3------2--------------------------------------------------------|
|---------------------0--------------------------------------------------------|
| leaving here   with you  (continue playing E5)                  
|
|------------------------------------------------------------------------------|
|------------------------------------------------------------------------------|
|-----------------------------------------------------9-9-9-9-9-9-9-9-9-9-9-9--|
|-------------------------------------9-9-9-9-9-9-9-9-9-9-9-9-9-9-9-9-9-9-9-9--|
|---------------------7-7-7-7-7-7-7-7-7-7-7-7-7-7-7-7-7-7-7-7-7-7-7-7-7-7-7-7--|
|------------------------------------------------------------------------------|


Break (guitar 2, guitar 1 plays E5 in open)
|-------------------|
|-------------------|
|-9--9--9-x-9-9--7--|
|-9--9--9-x-9-9--7--|
|-7--7--7-x-7-7--7--|
|-------------------|


Then....

Main riff:
|----------------------------------------------------------------------------------------------|
|----------------------------------------------------------------------------------------------|
|-12--9-9-7---7-9-9--12--9-9-7---7-9-9--12--9-9-7---7-9-9--11-11--11-11-11-11---11-11-7-7-7-7--|
|-----------7------------------7------------------7--------------------------------------------|
|----------------------------------------------------------------------------------------------|
|----------------------------------------------------------------------------------------------|


Verse:
|-------------------------------------------------------------------10----------10----|
|-------12-------12---------12-------12---------12-------12---------------------------|
|--9h11-----9h11----9--9h11-----9h11----9--9h11-----9h11----9--9h11-----9h11-------9--|
|-------------------------------------------------------------------------------------|
|-------------------------------------------------------------------------------------|
|-------------------------------------------------------------------------------------|


Chorus:
|---------------------------------------|
|---------------------------------------|
|---------------------------------------|
|---------------------------------------|
|---------------------------------------|
|-5-7----8--10------12-----------10-----| x3
  I know I wont be leaving here, with you.


Order:
Intro
Break
Main Riff
Verse
Main Riff
Break
Chorus
Main Riff
Verse
Main Riff
Break
Chorus
Break

##############################
4. Matinee


Intro:


Intro:

Quiet Riff
|---------------------------------------|
|---------------------------------------|
|---------------------------------------|
|-----2p0------2p0------2p0------2p0----|
|-4-4------4-4------4-4------4-4--------|
|---------------------------------------|


Louder Riff
|------------------------------------------------------------------------|
|------------------------------------------------------------------------|
|------------------------------------------------------------------------|
|-----2p0------2p0------2p0------2p0-------------------------------------|
|-4-4------4-4------4-4------4-4------2-2-4-5--2-2-4-5-------------------|  x2
|-------------------------------------------------------2-2-5--2-5-4-2---|

Verse 1:
C#m                 B       B A G# F#
You take your white finger,
F#m
slide the nail under
    F#m     G#     A       B    C#m
the top and bottom buttons of
   B        B A G# F#
my blazer,
F#m
relax the fraying wool,
F#m     G#   A   B      A
slacken ties and I'm
A                  E
not to look at you in the shoe, 
*Bm
 but the eyes. 
         D *
find the eyes	


Chorus:
   Bm
So find me and follow me 

through corridors, refectories 
    A
and files you must follow, leave this academic factory 
         Bm
you will find me in the matinee, 

the dark of the matinee is mine. 
    A
its better in the matinee,

the dark of the matinee is mine
        E
yes its mine


Riff


Verse 2: same as 1
I time every journey
to bump into you
acidently I
charm you and tell you
of the boys i hate
all the girls i hate
all the words i hate
all the clothes i hate
how I'll never be anything I hate
You smile, mention something that you like, 
how you'd have a happy life 
if you did the things you like. 


Chorus


Middle:
C#m            B     A B G# F#
So I'm on BBC2 now, 
F#m                 F#  G# B    A
telling Terry Wogan how I  made it. 
C#m              B      A B G# F#
What I made is unclear, 
F#m                  G#  A   B   
but his deference is and his laughter is.
A                              E
My words and smile are so easy now. 
    *Bm
Yes, It's easy now.
             D *
Yes its easy now

Chorus x2
##############################
5. Auf Asche
Intro (part 1):
Guitar 1:
|-------------|-------------|-------------|--------------|
|-------------|-------------|-------------|----------10--|
|-------------|----------9--|-10--9--7----|-10--9--7-----|
|-10--9--7----|-10--9--7----|----------7--|--------------|
|----------7--|-------------|-------------|--------------|
|-------------|-------------|-------------|--------------|

Guitar 2:
|-0-----------|-0-----------|-1-----------|-1------------|
|-1-----------|-1-----------|-3-----------|-1------------|
|-2-----------|-0-----------|-2-----------|-2------------|
|-2-----------|-2-----------|-0-----------|-3------------|
|-0-----------|-3-----------|-------------|-3------------|
|-------------|(3)----------|-------------|--------------|

Bass:
|-------------|-------------|-------------|--------------|
|-------------|-------------|-------------|-3------------|
|-------------|-3-----------|-5-----------|--------------|
|-5-----------|-------------|-------------|--------------|

Guitar 1:
|-------------|-------------|-------------|--------------|
|-13--12--10--|-12--10--8---|-10--8--6----|-10--8--6-----|
|-----------9-|-----------9-|-----------9-|----------7-9-|
|-------------|-------------|-------------|--------------|
|-------------|-------------|-------------|--------------|
|-------------|-------------|-------------|--------------|

Guitar 2:
|-0-----------|-0-----------|-1-----------|-1------------|
|-1-----------|-1-----------|-3-----------|-1------------|
|-2-----------|-0-----------|-2-----------|-2------------|
|-2-----------|-2-----------|-0-----------|-3------------|
|-0-----------|-3-----------|-------------|-3------------|
|-------------|(3)----------|-------------|--------------|

Bass:
|-------------|-------------|-------------|--------------|
|-------------|-------------|-------------|-3------------|
|-------------|-3-----------|-5-----------|--------------|
|-5-----------|-------------|-------------|--------------|

[ Tab from: http://www.guitartabs.cc/tabs/f/franz_ferdinand/franz_ferdinand_album_tab.html ]
Part 2: with part 1 guitar 
Guitar 3:
|--------------------|--------------------|--------------------|--------------------|
|--------------------|--------------------|--------------------|--------------------|
|--------------------|--------------------|--------------------|--------------------|
|-2-2-0-----2-2-0----|-2-2-0-----2-2-0----|-2-2-0-----2-2-0----|-2-2-0-----2-2-0----|
|-------0---------0--|-------0---------0--|-------0---------0--|-------0---------0--|
|--------------------|--------------------|--------------------|--------------------|
Guitar 2:
|-0------------------|-0------------------|-1------------------|-1------------------|
|-1------------------|-1------------------|-2------------------|-1------------------|
|-2------------------|-0------------------|-3------------------|-2------------------|
|-2------------------|-2------------------|-0------------------|-3------------------|
|-0------------------|-3------------------|--------------------|-3------------------|
|--------------------|--------------------|--------------------|--------------------|
Bass:
|--------------------|--------------------|--------------------|--------------------|
|--------------------|--------------------|--------------------|--------------------|
|--------------------|--------------------|--------------------|--------------------|
|-5-5-5-5-5-5-5-5-5--|-8-8-8-8-8-8-8-8-8-8|-10-10-10-10-10-10--|-13-13-13-13-13-----|

x 2

Verse same as intro part 2

Chorus:

Guitar 1:
Chords
A5 C5 D5

Bass:
|-------------------------------------------------|
|-------------------------------------------------|
|-------------------------------------------------|
|-5-5-5-5-5-5-5-5-5-5-5/-14---14---14----11-------|
  She not so special, so look what youve done boy
x 4



Middle:
Guitar:
Am C D Am
Ring chords out

Bass:
|---------------------------------------------------|
|---------------------------------------------------|
|---------------------------------------------------|
|-5-5-5-5-5-5-5-5-7-0-0-0-0-0-0-0-0-7-7-7-7-7-7-7-|
x2

Verse

Chorus

Bridge:
Guitar 1:
|---------------------|
|---------------------|
|---------------------|
|-12--13-14-13-12-----|
|---------------------|
|---------------------|

Bass:
not sure where abouts the Bass goes in but this is it:
|---------------------|
|---------------------|
|---------------------|
|-5-5-5-5/10-10-10-10-|
      etc..
Bass:
|-----------------|
|-----------------|
|-----------------|
|-5-5-5-5/9-9-9-9-|
"Never will I rise..."


Verse

End on A

############################
6. Cheating On You


Intro Riff 1:
|-------------------------------------|
|-------------------------------------|
|-------------------------------------|
|-------------------------------------|
|-------------------------------5-3---|
|-6-6-6-6-6-6-6-6--3-3-3-3-3-3-3-3----|
x4

Riff 2:
|-------------------------------------|
|-------------------------------------|
|-------------------------------------|
|-3-0-3-0-3-0-3-5-7-5-0-5-------------|
|-------------------------------------|
|-------------------------------------|
x4


Verse:
A#      G
Goodbye girl, because I'm lonely
A#      G
Goodbye girl, it isn't over
A#      G                       A#      G
Goodbye girl, because it's only love
 
A#      G
Goodbye girl, you know you want me
A#      G
Goodbye girl, yes I'm a loser
A#      G                       A#    G
Goodbye girl, you know its only love
 

Chorus:
F               G
I'm cheating on you, yeah
F               G
I'm cheating on you, yeah
F               G
I'm cheating on you, yeah
F                  G   G G G G
You're cheating on me
  

Riff 2


A#      G
Goodbye girl, you are are the only one
A#      G
Goodbye girl, I know you want me
A#      G                      A#    G
Goodbye girl, you are the only love, yeah 
 
A#      G
Goodbye girl, now if you're lonely
A#      G
Goodbye girl, why dont you join me?
A#      G                       A#     G
Goodbye girl, you know its only love
 
F               G
I'm cheating on you, yeah
F               G
I'm cheating on you, yeah
F               G
I'm cheating on you, yeah
F               G  G G G G
I'm cheating on me
 
Riff 3:
|-----------------------------|
|-----------------------------|
|-----------------------------|
|-2---2---2---2---2-4-6-4-2---|
|---4---4---4---4-------------|
|-----------------------------|
x2

Watch out
Watch out
Cheating on you


Riff 2

F       G
Goodbye girl
F       G
Goodbye girl
F       G
Goodbye girl
F       G
Goodbye girl
############################
7. This Fire
7. This Fire

Intro/Verse:
|-------------------|--------------------|
|-------------------|-------------1-1----|
|-----0-0-2-2-4-4---|-----0-0-3-2-2-2----|
|-3-3-2-2-3-4-5-5---|-3-3-2-2-4-4--------|
|-5-5---------------|-5-5----------------|
|-------------------|--------------------|
x6

Lyrics come in 2nd bar of the second time of the riff:

Eyes, boring a way through me
Paralyse, controlling completely
Now there is a fire in me
            E*  D
A fire that burns


chorus: Palm Muted
  D
|-------------------------------|
|-------------------------------|
|-7-7-x-7-7-x-7-7-x-7-7-x-7-7---|
|-7-7-x-7-7-x-7-7-x-7-7-x-7-7---|
|-5-5-x-5-5-x-5-5-x-5-5-x-5-5---|
|-------------------------------|
"This fire is out of control"
  F
|---------------------------------------------------|
|---------------------------------------------------|
|-10-10-x-x-10-10-x-x-10-10-x-x-10-10-x-x-10-10-x-x-|
|-10-10-x-x-10-10-x-x-10-10-x-x-10-10-x-x-10-10-x-x-|
|-8--8--x-x-8--8--x-x-8--8--x-x-8--8--x-x-8--8--x-x-|
|---------------------------------------------------|
"I'm going to burn this city, burn this city"


This fire is out of control
I'm going to burn this city
Burn this city
This fire is out of control
I'm going to burn this city
Burn this city
This fire is out of control
I'm going to burn it, I'll burn it
I, I, I'll burn it down

Break:
|----------------------------------|
|----------------------------------|
|----------------------------------|
|----------------------------------|
|--3--5---3-3--5--3-5-3-5----------|
|----------------------------------|
x3

-/- Staright at the end of the 2nd chorus

Play D5, C#5, Bm5

Then
Guitar 1 plays Break, Guitar 2, E5 (799)

Then
|------------------------------------------|
|------------------------------------------|
|-9----------9-----------9------------4----|
|-9----------9-----------9------------4----|
|-7----------6-----------5------------2----|
|------------------------------------------|
"Burn, how I burn, how I burn, Oh how I..."

Intro
Verse
Chorus
Break
Verse
Chorus
-/-
Intro Riff
Intro Riff/Break Riff
Chorus

#############################
8. Darts Of Pleasure

Intro:
|----------------------------|
|----------------------------|
|----------------------------|
|----------------------------|
|----------------------------|
|-2-2--2-5-5--5-2--2-0-0-----|


Verse 1:

Guitar 1 just plays A5

Guitar 2:
|------------------------------------|
|------------------------------------|
|----------------------------4^4p2---|
|------------------------------------|
|------------------------------------|
|------------------------------------|
 You are the latest contender

|------------------------------------|
|------------------------------------|
|----------------------------4-4-4---|
|------------------------------------|
|------------------------------------|
|------------------------------------|
 You are the one to remember

|-----------------------------------------|
|-----------------------------------------|
|---------------------------------4^4p2---|
|-----------------------------------------|
|-----------------------------------------|
|-----------------------------------------|
 You are the villain that sells a

Bridge:
|------------------------------------|
|------------------------------------|
|------------------------------------|
|------------------------------------|
|------------------------------------|
|---------5----6--7--5---2-----------|
  line of dark fantastic passion


Chorus:
|------------------------------------|
|------------------------------------|
|--9--9--9--9--9--9-9--7------5----4-|
|------------------------------------|
|------------------------------------|
|------------------------------------|
 You can feel my lips undress your eye

|------------------------------------|
|------------------------------------|
|------------------------------------|
|------------------------------------|
|------------------------------------|
|------------------------------------|

s
Undress your eyes, undress your eyes
Words of love, words so leisured
Words are poisoned darts of pleasure
Tied and so you die


Bass bit (played for longer live ;))

|--------------------|
|--------------------|
|--------------------|
|--------------------|
|--------------------|
|-3-3-3-/-12-12-12---|

|-------------------------|
|-------------------------|
|-5-5-5-5-5-7-5-7-5-7-7---|
|-------------------------|
|-------------------------|
|-------------------------|
Ich heisse superfantastisch




Intro
Verse 1
Bridge
Verse 2 (same as 1)
Bridge x2



#############################
9. Michael

Intro
Palm Muted
|--------------------------------------|
|--------------------------------------|
|--------------------------------------|
|--4-4-4-6-6-6-7-7---4-4-4-6-6-6-7-7---|
|--------------------------------------|
|--------------------------------------|

|--------------------------------------|
|--------------------------------------|
|--------------------------------------|
|------2-2-----------------------------|
|--4-4-----4-4--4-2--------------------|
|-------------------5-2----------------|
x2

|----------------------------------------------|
|-----------------------------------5-4-2/7----|
|------------------6-6-------------------------|
|--4-4-4-6-6-6-7-7------4-4-4-6-6-6------------|
|----------------------------------------------|
|----------------------------------------------|

Next bit of intro AND Verse:
|--------|
|--------|
|--11----|
|--11----|
|--9-----|
|--------|

##################

10. Come On Home

Intro:
Guitar 1:
|----------------------------------|
|----------------------------------|
|-(6)-x-x-x-x-x-x-x-x-x-x-x-x-x----|
|-(7)-x-x-x-x-x-x-x-x-x-x-x-x-x----|
|-(7)-x-x-x-x-x-x-x-x-x-x-x-x-x----|
|-(5)-x-x-x-x-x-x-x-x-x-x-x-x-x----|

Guitar 2:
|----------------------------------------------|
|----------------------------------------------|
|----------------------------------------------|
|----------------------------------------------|
|-----------------------7-8---7---11--7--------|
|-1/5-5---------------------------------8-7----|
x2

Versee:

A5 C5 B5 A5

Chorus:

F5 C5

###########################

11. 40ft



       (palm muted)
e------------------------------|
B---4---------4---4---------4--|
G-5---5--4--4---3---3--4--4----|     
D------------------------------|
A------------------------------|
E------------------------------|
x 4 (from begining to 0:18)
 
 
              p  h  p  h             p  h  p  h
e------------------------------------------------|
B------------------------------------------------|
G----------3--2--3--2--3-------------------------| 
D----4--5-------------------4--5--3--1--3--1--3--|
A-3----------------------3-----------------------|
E------------------------------------------------|
x4 (from 0:18 to 0:37)
As I glanced once upon the foam
40 feet beneath my feet
The cold has come flows through the molten veins
Cooling all the blood to slush congeals around again
Oh la la la la la la la la la la la...
 
 
      [Cm]        [G]                     [F]
 
e--x--3--3--3-----3--3--3--x--|           E--1--|
B--x--4--4--4-----3--3--3--x--|           B--1--|
G--x--5--5--5-----4--4--4--x--|           G--2--|
D--x--5--5--5-----5--5--5--x--|           D--3--|
A--x--3--3--3-----5--5--5--x--|           A--3--|
E-----------------3--3--3-----|           E--1--|
x 6 (from 0:50 to 1:04)   and then strum:
Oh, and forty feet remain
   

              p  h  p  h             p  h  p  h
e------------------------------------------------|
B------------------------------------------------|
G----------3--2--3--2--3-------------------------| 
D----4--5-------------------4--5--3--1--3--1--3--|
A-3----------------------3-----------------------|
E------------------------------------------------|
x 2  (from 1:08 to 1:17)
Soft scales upon my drying arms
Burn my back beneath the sun
I am cold beneath the burning haze
Looking down, looking down, down, down again
 
 
Mess around with Cm chord, eg:                [G]
 
e-------------------------------------|      E--3--|
B--------3-----------3----------3-----|      B--3--|
G-----4-----4-----4-----4----------4--|      G--4--|
D--4-----------4--------------5-------|      D--5--|
A--------------------------3----------|      A--5--|
E-------------------------------------|      E--3--|
x 6 (from 1:32 to 1:45)      and then strum:
Oh la la la la la la la la la la la...
 
 
      [Cm]        [G]                      [F]
 
e--x--3--3--3-----3--3--3--x--|              e--1--|
B--x--4--4--4-----3--3--3--x--|              B--1--|                   
G--x--5--5--5-----4--4--4--x--|              G--2--| 
D--x--5--5--5-----5--5--5--x--|              D--3--|
A--x--3--3--3-----5--5--5--x--|              A--3--|
E-----------------3--3--3-----|              E--1--|
Oh, and forty feet remain
 
 
              p  h  p  h      p  h  p  h              p h p h p h
e-----------------------------------------------------------------------|
B-----------------------------------------------------------------------|
G--------3--2--3--2--3------------------------------3-2-3-2-3-2-3-3-3-4-|
D---4-5------------------4--5--3--1--3--1--3---4--5---------------------|
A-3--------------------3---------------------3--------------------------|
E-----------------------------------------------------------------------|
x 2 (from 1:50 to 2:09)


         /   /      
e-----------------------------------------------------------------------|
B-----------------------------------------------------------------------|
G-----------------------------------------------------------------------|
D-----------------3--4--10--13--12--5--5--3--5--5--8--8--5--8--5--8--9--|
A--3--3--4--5--5--------------------------------------------------------|
E-----------------------------------------------------------------------|
 
e-----------------------------------------------------------------------|
B-----------------------------------------------------------------------|
G----------------------------7--8--7------------------------------------|
D--10--10--8--10--10--8--10-----------10--10--8--10--10--8--9-----------|
A-----------------------------------------------------------------------|
E-----------------------------------------------------------------------|

       h   p  h 
B--11--13--11--13--  
x 3 (with delay)
La la la la la...
 

  [F]
 
e--1--|
B--1--|
G--2--|
D--3--|
A--3--|
E--1--|
Oh, and forty feet remain
 
 
                          /
e-------------------11----------------------------------------|
B-13-12-11-12-13-13----11-13-13-13-12-11-11-13-11-13-12-11-12-|
G-------------------------------------------------------------|
D-------------------------------------------------------------|
A-------------------------------------------------------------|
E-------------------------------------------------------------|

e----11-------------11----------------------------------------|
B-13----13-12-11-13----13-12-11-13-13-12-13-13-12-11-11-12-13-|
G-------------------------------------------------------------|
D-------------------------------------------------------------|
A-------------------------------------------------------------|
E-------------------------------------------------------------|
(from 3:00 to end)
 
 
A second guitar is doing some bending sounds:
       B    r
G--15--(17)--15--|


TABBED BY J-ROCKET!!!
Comments