Franz Ferdinand - Fallen Chords & Tabs

 

Fallen Chords & Tabs

Franz Ferdinand Chords & Tabs

Version: 1 Type: Tab 0 ratings
1 star 2 stars 3 stars 4 stars 5 stars
comments

Fallen Tab

   
-------------------------------------------------------------------------------
			     The Fallen - Franz Ferdinand
-------------------------------------------------------------------------------
Tabbed by: Steven Gladman
Email: stevie.gladman@ntlworld.com

Tuning: EADGBe



e|----------------------|
B|----------------------|
G|----------------------|
D|----------------------|
A|-3-3/13-13----11------| X 6
E|-----------13----13---|

e|--------------------------------------------------|
B|--------------------------------------------------|
G|--------------------5----5------------------------|
D|--3-0------7-7-5-7-----7---7-5--5-7-5-3-----------|
A|------2---------------------------------6-5-3-----|
E|--------3-----------------------------------------|

Guitar 1
e|---------------------------------------------------------------------------|
B|---------------------------------------------------------------------------|
G|---------------------------------------------------------------------------|
D|---------------------------------------------------------------------------|
A|---------------------------------------------------------------------------|
E|--5-7-8--8-7-5--5-7-8--8-7-5--5-7-8--8-7-5--3-4-7--2-3-4-------------------|

Guitar 2
e|---------------------------------------------------------------------------|
B|---------------------------------------------------------------------------|
G|-----------------8-9------------------8-9------------------8-9-------------|
D|--10-9-7--10-9-7------10-9-7--10-9-7-------10-9-7--10-9-7------10-9-6--9-5-|
A|---------------------------------------------------------------------------|
E|---------------------------------------------------------------------------|

e|---------5---------5---------5------------|
B|---------6---------6---------6------------|
G|---------5---------5---------5------------|
D|-7-7-7------7-7-7------7-7-7----5-5-5-6---|
A|-7-7-7------7-7-7------7-7-7----5-5-5-6---|  X 2
E|-5-5-5------5-5-5------5-5-5----3-3-3-4---|

e|----------------------|
B|----------------------|
G|----------------------|
D|----------------------|
A|-3-3/13-13----11------| X 3
E|-----------13----13---|

e|--------------------------------------------------|
B|--------------------------------------------------|
G|--------------------5----5------------------------|
D|--3-0------7-7-5-7-----7---7-5--5-7-5-3-----------|
A|------2---------------------------------6-5-3-----|
E|--------3-----------------------------------------|

e|---------5---------5---------5------------|
B|---------6---------6---------6------------|
G|---------5---------5---------5------------|
D|-7-7-7------7-7-7------7-7-7----5-5-5-6---|
A|-7-7-7------7-7-7------7-7-7----5-5-5-6---|  X 1
E|-5-5-5------5-5-5------5-5-5----3-3-3-4---|


e|----------------------|
B|----------------------|
G|----------------------|
D|----------------------|
A|-3-3/13-13----11------| X 2
E|-----------13----13---|
[ Tab from: http://www.guitartabs.cc/tabs/f/franz_ferdinand/fallen_tab.html ]
e|--------------------------------------------------|
B|--------------------------------------------------|
G|--------------------5----5------------------------|
D|--3-0------7-7-5-7-----7---7-5--5-7-5-3-----------|
A|------2---------------------------------6-5-3-----|
E|--------3-----------------------------------------|

Guitar 1
e|---------------------------------------------------------------------------|
B|---------------------------------------------------------------------------|
G|---------------------------------------------------------------------------|
D|---------------------------------------------------------------------------|
A|---------------------------------------------------------------------------|
E|--5-7-8--8-7-5--5-7-8--8-7-5--5-7-8--8-7-5--3-4-7--2-3-4-------------------|

Guitar 2
e|---------------------------------------------------------------------------|
B|---------------------------------------------------------------------------|
G|-----------------8-9------------------8-9------------------8-9-------------|
D|--10-9-7--10-9-7------10-9-7--10-9-7-------10-9-7--10-9-7------10-9-6--9-5-|
A|---------------------------------------------------------------------------|
E|---------------------------------------------------------------------------|

e|---------5---------5---------5------------|
B|---------6---------6---------6------------|
G|---------5---------5---------5------------|
D|-7-7-7------7-7-7------7-7-7----5-5-5-6---|
A|-7-7-7------7-7-7------7-7-7----5-5-5-6---|  X 2
E|-5-5-5------5-5-5------5-5-5----3-3-3-4---|

e|----------------------|
B|----------------------|
G|----------------------|
D|----------------------|
A|-3-3/13-13----11------| X 4
E|-----------13----13---|

e|--------------------------------------------------|
B|--------------------------------------------------|
G|--------------------5----5------------------------|
D|--3-0------7-7-5-7-----7---7-5--5-7-5-3-----------|
A|------2---------------------------------6-5-3-----|
E|--------3-----------------------------------------|


e|------------------------------------------------------|
B|------------------------------------------------------|
G|------------------------------------------------------|
D|------------------------------------------------------|
A|--3--5-3-5-7-5-3-5--8-5-3--0-3--8-8-5-3-0-3-0---------|
E|----------------------------------------------3-------|

Bass Solo
A F X 4


e|---------5---------5---------5------------|
B|---------6---------6---------6------------|
G|---------5---------5---------5------------|
D|-7-7-7------7-7-7------7-7-7----5-5-5-6---|
A|-7-7-7------7-7-7------7-7-7----5-5-5-6---|  X 1
E|-5-5-5------5-5-5------5-5-5----3-3-3-4---|

e|----------------------|
B|----------------------|
G|----------------------|
D|----------------------|
A|-3-3/13-13----11------| X 12
E|-----------13----13---|

e|--------------------------------------------------|
B|--------------------------------------------------|
G|--------------------5----5------------------------|
D|--3-0------7-7-5-7-----7---7-5--5-7-5-3-----------|
A|------2---------------------------------6-5-3-----|
E|--------3-----------------------------------------|


| /  slide up
| \  slide down
| h  hammer-on
| p  pull-off
| ~  vibrato
| +  harmonic
| x  Mute note
Comments