Franz Ferdinand - Evil And A Heathen Chords & Tabs

 

Evil And A Heathen Chords & Tabs

Franz Ferdinand Chords & Tabs

Version: 2 Type: Bass Tab

Evil And A Heathen Bass Tab

Artist-Franz Ferdinand
Song-Evil and a Heathen
Album-You could have it So Much Better
Tabbed by-ianl

Standard tuning-EADG

Intro
|-----------------------------------|
|*---------------------------------*|
|*---------------------------------*|
|--2-2-2-2-2-2-2-2--2-2-2-2-2-2-2-2-|

Verse/Chorus
|----------------------------------|
|----------------------------------|
|----------------------------------|
|-5-5-4-4-2-2-2-2--5-5-4-4-2-2-2-2-|
[ Tab from: http://www.guitartabs.cc/tabs/f/franz_ferdinand/evil_and_a_heathen_btab_ver_2.html ]
Bridge
|------------------------------------------------------------------|
|-----------------------7-----------------7------------------7-----|
|----------7-7-7-7-5-5---5--7-7-7-7--5-5---5---7-7-7-7--5-5---5---|
|-5-5-7-7----------------------------------------------------------|

---------------------------|---------------------|
---------------------------|*--------------------|
-7-7-7-7-5-5-6-6----------|*--------------------|
-------------------2-2-2-2-|--5-5-4-4-2-2-2-2----|

Outro

|---------------|x4
|-------------4-|
|-----------4---|
|-5-5-4-4-2-----|