Franz Ferdinand - Do You Want To Chords & Tabs

 

Do You Want To Chords & Tabs

Franz Ferdinand Chords & Tabs

Version: 1 Type: Bass Tab 0 ratings
1 star 2 stars 3 stars 4 stars 5 stars
comments

Do You Want To Bass Tab

   
Intro
G ------5-----|
D 7-7-7-------|
A --------7---|  4x
E ------------|

G ----------------------------------------|
D ----------------------------------------|
A 3-3-1-3-3-1-3-3-1-3-1-3-5-5-5-5-5-5-5-5-|
E ----------------------------------------|

Chorus

G ----------------------------------------------|
D ----5---------5-------------5---------5-------|
A ------------------------------------------3-5-|
E 3-3---3-3-3-3---3-0-1-2-3-3---3-3-3-3---3-----|

G ----5---------10-----|
D ---------------------|
A 3-3---3-3/8-8----8-8-|
E ---------------------|

Break

G ------------------------|
D ----5---------5---------|
A ------------------------|
E 3-3---3-3-3-3---3-0-1-2-|

Verse

G ----------------------------------------------------------|
D -7-7-7-7-7-7-7-----3-3-3-3-3-3-3-3----5---------5---------|
A ----------------3-----------------------------------------|
E 5-5-5-5-5-5-5-5---1-1-1-1-1-1-1-1-3-3---3-3-3-3---3-0-1-2-|


Break

[ Tab from: http://www.guitartabs.cc/tabs/f/franz_ferdinand/do_you_want_to_btab.html ]
G -----------------------------|
D ----5---------5--------------|     4x
A -----------------------------|
E 3-3---3-3-3-3---3-0-1-2------|

G --------------------------------------------------------------|
D ---------------------7-7-7-7-7-7-----------7-7-7-7-7-7--------|
A --------------------------------------------------------------|
E 3-3-3-3-3-3-3-0-1-3-5-5-5-5-5-5-5-6-7-8-5-5-5-5-5-5-5-5-6-7-8-|

G ----5-----5-----5----5-----------------|
D ---------------------------------------|
A 3-3---3-3---3-3--3-3---5-5-5-5-5-5-5-5-|
E ---------------------------------------|

 Outro

G ----------------------------------------------------------------|
D ----------------------------------------------------------------|
A --------3-----------3--4--5--6--3-3-3-3-4-4-4-4-5-5-5-5-6-6-6-6-|
E 3-3-3-3-----3-3-3-3---------------------------------------------|

G ----------------------------------|
D ----------------------------------|
A 3-3-3-3-4-4-4-4-5-5-5-5-6-6-6-6-3-|
E ----------------------------------|

I think thats right, chorus and verse might be mixed up but hey i'm tryin man!!!
Comments