Franz Ferdinand - Darts Of Pleasure Chords & Tabs

 

Darts Of Pleasure Chords & Tabs

Franz Ferdinand Chords & Tabs

Version: 1 Type: Tab 0 ratings
1 star 2 stars 3 stars 4 stars 5 stars
comments

Darts Of Pleasure Tab

Band - Franz Ferdinand
Song - Darts Of Pleasure

Key:
h - hammer on
p - pull off
b - bend string up
r - release bend
/ - slide up
 - slide down
x - mute string
 
Bass Intro:
G------------------- 
D-----77-7---------- 
A-99-9----99-9-77-88 
E------------------- 

Verse 1:

		(Guitar 1)
|------------------------------------|
|------------------------------------|
|------------------------------------|
|------------------------------------|
|---2--------------------------------|
|---4--------------------------------|

		(Guitar 2)
|------------------------------------|
|------------------------------------|
|----------------------4^4p2---=-----|
|------------------------------------|
|------------------------------------|
|------------------------------------|
[ Tab from: http://www.guitartabs.cc/tabs/f/franz_ferdinand/darts_of_pleasure_tab.html ]
|------------------------------------|
|------------------------------------|
|----------------------------4-4-4---|
|------------------------------------|
|------------------------------------|
|------------------------------------|

|-----------------------------------------|
|-----------------------------------------|
|---------------------------------4^4p2---|
|-----------------------------------------|
|-----------------------------------------|
|-----------------------------------------|

Bridge:
|------------------------------------|
|------------------------------------|
|------------------------------------|
|------------------------------------|
|------------------------------------|
|-5----6--7----8-----7---6--5--------|

Chorus:
|--------------------------------------------|
|--------------------------------------------|
|--9--9--9--9--9--9-9--7------5----4---------|
|--------------------------------------------|
|--------------------------------------------|
|--------------------------------------------|
Comments