Franz Ferdinand - Darts Of Pleasure Chords & Tabs

 

Darts Of Pleasure Chords & Tabs

Franz Ferdinand Chords & Tabs

Version: 1 Type: Bass Tab 0 ratings
1 star 2 stars 3 stars 4 stars 5 stars
comments

Darts Of Pleasure Bass Tab

Franz Ferdinand - Darts of Pleasure bass tab by JG

OK no one else seems to have tabbed this fully...I've had a go...there are parts I'm not 
sure on but I've noted them.


Intro/Main Riff
G--------------------------|
D-------77-7---------------|
A--99-9------99-9-7-7-7-8--|
E--------------------------|


Part 2
G----------------------------------------99-12-12-99------------|
D-----66-77-88-99-77-66---------------99-------------99---------|
A--77-------------------99--77-[10-10-------------------10-10]--|
E---------------------------------------------------------------|

the part between the brackets is hard to hear...but what i've written works

[ Tab from: http://www.guitartabs.cc/tabs/f/franz_ferdinand/darts_of_pleasure_btab.html ]
Part 3
G-----------------------------------------------------------------------|
D-----------------------------------------------------------------------|
A--3-3-3-3-3-3-5-3---------------------------------3-2------------------|
E------------------0-0-0-0-0-0-0-0-2-3-5-5-5-5-5-5-----0-0-0-0-0-0-0-0--|

G---------------------------------------------------------------3-3-3*--|
D---------------------------------------------------------------3-3-3---|
A--3-3-3-3-3-3-5-3---------------------------------7-7-7-7-7-7----------|
E------------------0-0-0-0-0-0-0-0/7-7-7-7-7-7-7-7----------------------|

*Not sure if this bit is right...but it sounds ok


Outro
G-------------------------------------------|
D-------------------------------------------|
A-------------------------------------------| etc.
E--3-3-3-3/12-12-12-12\3-3-3-3/12-12-12-12--|

and this fill is added in the outro...
G--------------------------|
D--------------------------|
A--------9-10--------9-10--|
E--12-12------12-12--------|
Comments