Franz Ferdinand - Dark Of The Matinee Chords & Tabs

 

Dark Of The Matinee Chords & Tabs

Franz Ferdinand Chords & Tabs

Version: 4 Type: Tab 0 ratings
1 star 2 stars 3 stars 4 stars 5 stars
comments

Dark Of The Matinee Tab

   
Franz Ferdinand
The Dark Of The Matinee - Guitar Tab

i know this tab is 100% right....it sounds coool
the credits go to www.franzferdinand.8k.net and if you want more franz
ferdinand tabs just visit that awesome site...

later

>>yasmine<<

Intro (X2)
E--------------------------------------------------------------------|
B--------------------------------------------------------------------|
G-------------------------------------------------------2----2-1-----|
D-------2------2------2------2-------------------2--4-4---44-----4---|
A---4-4---44-4---44-4---44-4----4p2-2-4-5--2-4-5---------------------|
E--------------------------------------------------------------------|


Verse
Guitar 1
    C#  B   F#        C#  B   F#        C#             E
E-----------2-----------------2-----------------------------------|
B-----------2-----------------2-----------------------------------|
G---6---4---3---------6---4---3------------------------9----------|
D---6---4---4---------6---4---4-4-6-7-9-11-------------9----------|
A---4---2---4---------4---2---4---------X--------------7----------|
E-----------2----------------2---------9-------------------------|

Guitar 2
    C#  B   F#        C#  B   F#         E
E-----------2-----------------2------------------------------------|
B-----------2-----------------2------------------------------------|
G---6---4---3---------6---4---3----------99-99-99-99---99-99-99-99-|
D---6---4---4---------6---4---4----------99-99-99-99---99-99-99-99-|
A---4---2---4---------4---2---4----------77-77-77-77---77-77-77-77-|
E-----------22-4-5-7---------2------------------------------------|

*note - bass does this bit in between the B and F# chords:

G------------|
D------------|
A11-9-7-6-4-|
E------------|
At least, this is how you'd play it on guitar.  He plays it an octave higher.


Pre Chorus

Guitar 1 (upstrokes - ska style)
    B                   D
E---77XX7X7X7~-77-7X7---55XX5X5X5~-55--|
B---77XX7X7X7~-77-7X7---55XX5X5X5~-55--|
G---88XX8X8X8~-88-8X8---77XX7X7X7~-77--|
D---99XX9X9X9~-99-9X9---77XX7X7X7~-77--|
A--------------------------------------|
E--------------------------------------|

Guitar 2
    B                   D
E-----------------------------------|
B-----------------------------------|
G---44-44-44-44---------77-77-77-77-|
D---44-44-44-44---------77-77-77-77-|
A---22-22-22-22---------55-55-55-55-|
E-----------------------------------|
[ Tab from: http://www.guitartabs.cc/tabs/f/franz_ferdinand/dark_of_the_matinee_tab_ver_4.html ]
Chorus
(part 1)
    B                  D
E---------------------------------------|----|
B---------------------------------------|----|
G---4444444444444444---7777777777777777-|----|
D---4444444444444444---7777777777777777------|X2
A---2222222222222222---5555555555555555-|----|
E---------------------------------------|----|

I think one of the guitars keeps the ska going in the chorus, but I
can't be bothered typing out that again!

Chorus (part 2)
E------------------|
B------------------|
G---6---9---8---6--|
D---6---9---8---6--|
A---4---7---6---4--|
E------------------|

One guitar may pick that.


Intro
E--------------------------------------------------------------------|
B--------------------------------------------------------------------|
G-------------------------------------------------------2---4-2-1----|
D-------2------2------2------2-------------------2--4-4---4-------4--|
A---4-4---44-4---44-4---44-4----4p2-2-4-5--2-4-5---------------------|
E--------------------------------------------------------------------|

E--------------------------------------------------------------------|
B--------------------------------------------------------------------|
G-------------------------------------------------------2----2-1-----|
D-------2------2------2------2-------------------2--4-4---44-----4---|
A---4-4---44-4---44-4---44-4----4p2-2-4-5--2-4-5---------------------|
E--------------------------------------------------------------------|

(There's a variation at the end of the first time)


Verse 2
Guitar 1
    C# B   F#        C#  B   F#        C#  F#         C#          E
E----------2-----------------2-------------2-------------------------|
B----------2-----------------2-------------2-------------------------|
G---6--4---3---------6---4---3-------------3----------------------9--|
D---6--4---4---------6---4---4-4-6-7-9-11--4-4-6-7-9--11----------9--|
A---4--2---4---------4---2---4---------X---4----------X-----------7--|
E----------2----------------2---------9---2----------9--------------|

Guitar 2
    C# B   F#        C#  B   F#        C#  F#         E
E----------2-----------------2-------------2--------|---------------|
B----------2-----------------2-------------2--------|---------------|
G---6--4---3---------6---4---3-------------3--------|-99-99-99-99---|
D---6--4---4---------6---4---4---------11--4--------|-99-99-99-99-X2|
A---4--2---4---------4---2---4---------X---4--------|-77-77-77-77---|
E----------22-4-5-7---------2---------9---2--------|---------------|

When both guitars are playing E (at the end) the second guitar plays
constant downstrokes - that than 2 together then a pause - just to
help you get a rhythm for it)

Pre Chorus 2 - same.

Chorus 2 - same.

Interlude - Same as verse one and pre chorus, but no bass.  Also goes into 3/4 time

Chorus X2
Comments