Franz Ferdinand - Dark Of The Matinee Chords & Tabs

 

Dark Of The Matinee Chords & Tabs

Franz Ferdinand Chords & Tabs

Version: 2 Type: Bass Tab 0 ratings
1 star 2 stars 3 stars 4 stars 5 stars
comments

Dark Of The Matinee Bass Tab

Song: Dark on The Matinee
Artist: Franz Ferdinand
Album: Self-titled
Tuning: Standard Bass
Tabbed by: MrGreenCunt

/ Slide
~ Let ring

The bass is quite prominent, so just follow the song if you get lost.


Intro

G: --------------------------------------------------------|
D: --------------------------------------------------------|
A: -44-44-44-44-7/1414-1414-99-99--------------------------|
E: ------------------------------9-------------------------| x2

First Verse

G: --------------------------------------------------------|
D: --------------------------------------------------------|
A: -44-44-7/1414-1414-99-99-99-99--------------------------|
E: --------------------------------------------------------|

G: --------------------------------------------------------|
D: --------------------------------------------------------|
A: -44-44-7/1414-1414-99-99-99-99-11-1212-1212-1212-1212---|
E: --------------------------------------------------------|

G: --------------------------------------------------------|
D: --------------------------------------------------------|
A: --------------------------------------------------------|
E: -1212-1212-1212-1212------------------------------------|

Pre Chorus

G: --------------------------------------------------------|
D: --------------------------------------------------------|
A: --------------------------------------------------------|
E: -77777777-1010101010101010------------------------------|

Chorus

G: --------------------------------------------------------|
D: --------------------------------------------------------|
A: --------------------------------------------------------|
E: -7-7-7-25--7-7-7-79-10-10-10-79--10-10-10-79------------|
[ Tab from: http://www.guitartabs.cc/tabs/f/franz_ferdinand/dark_of_the_matinee_btab_ver_2.html ]
G: --------------------------------------------------------|
D: --------------------------------------------------------|
A: --------------------------------------------------------|
E: -7-7-7-2-5-7-7-7-79-10-10-10-79--10-10-10-79------------|

End Chorus

G: --------------------------------------------------------|
D: --------------------------------------------------------|
A: ----------------14141414-9999---------------------------|
E: -5~----99999999-----------------------------------------|

Repeat Intro

Second Verse

G: --------------------------------------------------------|
D: --------------------------------------------------------|
A: -44-44-7/1414-1414-99-99-99-99--------------------------|
E: --------------------------------------------------------|

G: --------------------------------------------------------|
D: --------------------------------------------------------|
A: -44-44-7/1414-1414-99-99-99-99-11-1212-1212-1212--------|
E: --------------------------------------------------------|


G: --------------------------------------------------------|
D: --------------------------------------------------------|
A: -1212-11-99-99-99-99-11-1212-1212-1212-1212-------------|
E: --------------------------------------------------------|

G: --------------------------------------------------------|
D: --------------------------------------------------------|
A: --------------------------------------------------------|
E: -1212-1212-1212-1212------------------------------------|

Pre Chorus

Chorus

End Chorus

Third Verse

E: --------------------------------------------------------|
D: --------------------------------------------------------|
A: -4~----7/14~----14-9~-----------------------------------|
E: --------------------------------------------------------|

E: --------------------------------------------------------|
D: --------------------------------------------------------|
A: -4~----7/14~----14-9~--------11-12~------11-------------|
E: -------------------------------------------12~----------|

Pre Chorus

Chorus x2

End Chorus/Coda
Comments