Franz Ferdinand - Dark Of The Matinee Chords & Tabs

 

Dark Of The Matinee Chords & Tabs

Franz Ferdinand Chords & Tabs

Version: 1 Type: Bass Tab 0 ratings
1 star 2 stars 3 stars 4 stars 5 stars
comments

Dark Of The Matinee Bass Tab

   
Artist: Franz Ferdiand
Song: Dark of the Matinee
Album: Franz Ferdinand

Standard Tuning (E,A,D,G)

Intro (x2)
G|--------------------------------------------------------------------|
D|--------------------------------4/9-9-----9-9-----------------------|
A|--4-4-----4-4-----4-4-----4-4---------------------9-9-----9-9-5-----|
E|--------------------------------------------------------------------|

Verse1
G|--------------------------------------------------------------------|
D|----------------4/9-9-----9-9---------------------------------------|
A|--4-4-----4-4---------------------9-9-----9-9-----9-9-----9-9-7-----|
E|--------------------------------------------------------------------|

G|--------------------------------------------------------------------|
D|----------------4/9-9-----9-9---------------------------------6-----|
A|--4-4-----4-4---------------------9-9-----9-9-----9-9-----9-9-------|
E|--------------------------------------------------------------------|

G|--------------------------------------------------------------------|
D|--7-7-----7-7-----7-7-----7-7----2-2-----2-2------2-2----2-2--------|
A|--------------------------------------------------------------------|
E|--------------------------------------------------------------------|

G|--------------------------------------------------------------------|
D|--------------------------------------------------------------------|
A|--2---2---2---2---2---2---2---2---5---5---5---5---5---5---5---5-----|
E|--------------------------------------------------------------------|

Chorus1
G|--------------------------------------------------------------------|
D|--------------------------------------------------------------------|
A|--2---2---2---0---2---2---2---2-4-5---5---5---4---5---5---5---4-----|
E|------------2-------------------------------5---------------5-------| X2

G|----------------------------------------------------|
D|---------------------------------/9-9-9-9-----------|
A|------------------4-4-4-4-4-4-4-4---------9-9-9-9---|
E|--5-5-5-5-5-5-5-5-----------------------------------|

Brigde (x2)
G|--------------------------------------------------------------------|
D|--------------------------------4/9-9-----9-9-----------------------|
A|--4-4-----4-4-----4-4-----4-4---------------------9-9-----9-9-5-----|
E|--------------------------------------------------------------------|

Verse2
G|--------------------------------------------------------------------|
D|----------------4/9-9-----9-9---------------------------------------|
A|--4-4-----4-4---------------------9-9-----9-9-----9-9-----9-9-7-----|
E|--------------------------------------------------------------------|

G|--------------------------------------------------------------------|
D|----------------4/9-9-----9-9---------------------------------6-----|
A|--4-4-----4-4---------------------9-9-----9-9-----9-9-----9-9-------|
E|--------------------------------------------------------------------|

G|--------------------------------------------------------------------|
D|--7-7-----7-7-----7-7-----7-7-6-------------------------------6-----|
A|----------------------------------9-9-----9-9------9-9----9-9-------|
E|--------------------------------------------------------------------|

G|--------------------------------------------------------------------|
D|--7-7-----7-7-----7-7-----7-7----2-2-----2-2------2-2----2-2--------|
A|--------------------------------------------------------------------|
E|--------------------------------------------------------------------|
[ Tab from: http://www.guitartabs.cc/tabs/f/franz_ferdinand/dark_of_the_matinee_btab.html ]
G|--------------------------------------------------------------------|
D|--------------------------------------------------------------------|
A|--2---2---2---2---2---2---2---2---5---5---5---5---5---5---5---5-----|
E|--------------------------------------------------------------------|

Chorus2
G|--------------------------------------------------------------------|
D|--------------------------------------------------------------------|
A|--2---2---2---0---2---2---2-2-4---5---5---5---4---5---5---5---4-----|
E|------------2-------------------------------5---------------5-------|

G|--------------------------------------------------------------------|
D|--------------------------------------------------------------------|
A|--2---2---2---0---2---2---2---2-4-5---5---5---4---5---5---5---4-----|
E|------------2-------------------------------5---------------5-------|

G|-----------------------------------------------------|
D|---------------------------------/9-9-9-9------------|
A|------------------4-4-4-4-4-4-4-4---------9-9-9-9----|
E|--5-5-5-5-5-5-5-5------------------------------------|

Verse3 (Tempo Slows Here)
G|--------------------------------------------------------------------|
D|----------------4/9-------------9-----------------------------------|
A|--4-------------------------------9-----------------------------7---|
E|--------------------------------------------------------------------|

G|--------------------------------------------------------------------|
D|----------------4/9-------------9-------------------------------6---|
A|--4-------------------------------9---------------------------------|
E|--------------------------------------------------------------------|

G|--------------------------------------------------------------------|
D|--7-------7-------7-------7-------2-------2-------2-------2---------|
A|--------------------------------------------------------------------|
E|--------------------------------------------------------------------|

G|--------------------------------------------------------------------|
D|--------------------------------------------------------------------|
A|--2---2---2---2---2---2---2---2---5---5---5---5---5---5---5---5-----|
E|--------------------------------------------------------------------|

Chorus3
G|--------------------------------------------------------------------|
D|--------------------------------------------------------------------|
A|--2---2---2---0---2---2---2---2-4-5---5---5---4---5---5---5---4-----|
E|------------2-------------------------------5---------------5-------|

G|--------------------------------------------------------------------|
D|--------------------------------------------------------------------|
A|--2---2---2---0---2---2---2-2-4---5---5---5---4---5---5---5---4-----|
E|------------2-------------------------------5---------------5-------|

G|--------------------------------------------------------------------|
D|--------------------------------------------------------------------|
A|--2---2---2---0---2---2---2---2-4-5---5---5---4---5---5---5---4-----|
E|------------2-------------------------------5---------------5-------| X2

G|-----------------------------------------------------|
D|---------------------------------/9-9-9-9------------|
A|------------------4-4-4-4-4-4-4-4---------9-9-9-9----|
E|--5-5-5-5-5-5-5-5------------------------------------|

Outro
G|-------------------------------|
D|-------------------------------|
A|--4----------------------------|
E|-------------------------------|

Order:
Intro
Verse1
Chorus1
Bridge
Verse2
Chorus2
Verse3
Chorus3
Outro

The timings really easy to pick up just by listening to the CD
Thats pretty much spot on... I think...
But any comments you got email me at corrosivebass@hotmail.com
Comments