Franz Ferdinand - Auf Achse Chords & Tabs

 

Auf Achse Chords & Tabs

Franz Ferdinand Chords & Tabs

Version: 1 Type: Tab 0 ratings
1 star 2 stars 3 stars 4 stars 5 stars
comments

Auf Achse Tab

   
Artist: Franz Ferdinand
Title: Auf Achse ot Truck Stop. Track 5 from album


Intro (part 1):
Guitar 1:
|-------------|-------------|-------------|--------------|
|-------------|-------------|-------------|----------10--|
|-------------|----------9--|-10--9--7----|-10--9--7-----|
|-10--9--7----|-10--9--7----|----------7--|--------------|
|----------7--|-------------|-------------|--------------|
|-------------|-------------|-------------|--------------|

Guitar 2:
|-0-----------|-0-----------|-1-----------|-1------------|
|-1-----------|-1-----------|-3-----------|-1------------|
|-2-----------|-0-----------|-2-----------|-2------------|
|-2-----------|-2-----------|-0-----------|-3------------|
|-0-----------|-3-----------|-------------|-3------------|
|-------------|(3)----------|-------------|--------------|

Bass:
|-------------|-------------|-------------|--------------|
|-------------|-------------|-------------|-3------------|
|-------------|-3-----------|-5-----------|--------------|
|-5-----------|-------------|-------------|--------------|

Guitar 1:
|-------------|-------------|-------------|--------------|
|-13--12--10--|-12--10--8---|-10--8--6----|-10--8--6-----|
|-----------9-|-----------9-|-----------9-|----------7-9-|
|-------------|-------------|-------------|--------------|
|-------------|-------------|-------------|--------------|
|-------------|-------------|-------------|--------------|

Guitar 2:
|-0-----------|-0-----------|-1-----------|-1------------|
|-1-----------|-1-----------|-3-----------|-1------------|
|-2-----------|-0-----------|-2-----------|-2------------|
|-2-----------|-2-----------|-0-----------|-3------------|
|-0-----------|-3-----------|-------------|-3------------|
|-------------|(3)----------|-------------|--------------|

Bass:
|-------------|-------------|-------------|--------------|
|-------------|-------------|-------------|-3------------|
|-------------|-3-----------|-5-----------|--------------|
|-5-----------|-------------|-------------|--------------|

[ Tab from: http://www.guitartabs.cc/tabs/f/franz_ferdinand/auf_achse_tab.html ]
Part 2: with part 1 guitar 
Guitar 3:
|--------------------|--------------------|--------------------|--------------------|
|--------------------|--------------------|--------------------|--------------------|
|--------------------|--------------------|--------------------|--------------------|
|-2-2-0-----2-2-0----|-2-2-0-----2-2-0----|-2-2-0-----2-2-0----|-2-2-0-----2-2-0----|
|-------0---------0--|-------0---------0--|-------0---------0--|-------0---------0--|
|--------------------|--------------------|--------------------|--------------------|
Guitar 2:
|-0------------------|-0------------------|-1------------------|-1------------------|
|-1------------------|-1------------------|-2------------------|-1------------------|
|-2------------------|-0------------------|-3------------------|-2------------------|
|-2------------------|-2------------------|-0------------------|-3------------------|
|-0------------------|-3------------------|--------------------|-3------------------|
|--------------------|--------------------|--------------------|--------------------|
Bass:
|--------------------|--------------------|--------------------|--------------------|
|--------------------|--------------------|--------------------|--------------------|
|--------------------|--------------------|--------------------|--------------------|
|-5-5-5-5-5-5-5-5-5--|-8-8-8-8-8-8-8-8-8-8|-10-10-10-10-10-10--|-13-13-13-13-13---|

x 2

Verse same as intro part 2

Chorus:

Guitar 1:
Chords
A5 C5 D5

Bass:
|-------------------------------------------------|
|-------------------------------------------------|
|-------------------------------------------------|
|-5-5-5-5-5-5-5-5-5-5-5/-14---14---14----11-------|
  She not so special, so look what youve done boy
x 4



Middle:
Guitar:
Am C D Am
Ring chords out

Bass:
|---------------------------------------------------|
|---------------------------------------------------|
|---------------------------------------------------|
|-5-5-5-5-5-5-5-5-7\0-0-0-0-0-0-0-0-0-7-7-7-7-7-7-7-|
x2

Verse

Chorus

Bridge:
Guitar 1:
|---------------------|
|---------------------|
|---------------------|
|-12--13-14-13-12-----|
|---------------------|
|---------------------|

Bass:
not sure where abouts the Bass goes in but this is it:
|---------------------|
|---------------------|
|---------------------|
|-5-5-5-5/10-10-10-10-|
      etc..
Bass:
|-----------------|
|-----------------|
|-----------------|
|-5-5-5-5/9-9-9-9-|
"Never will I rise..."


Verse

End on A
Comments