Frankie J - Obsession Chords & Tabs

 

Obsession Chords & Tabs

Frankie J Chords & Tabs

Version: 2 Type: Chords 0 ratings
1 star 2 stars 3 stars 4 stars 5 stars
comments

Obsession Chords

   
I looked at all the tabs and I notice they are all using the wrongs chords so i tabbed it myself.
This is exactly how they play it on the live version at mtv.com

This is my first tab. email me at tonyvu123hotmail.com if you have any questions.



Frankie J featuring Baby Bash
"Obsession"

************** 
*** Capo 1 ***  
**************


Verses

       G     Bm    G  

e |----3-----2-----3---------|
b |----3-----3-----3---------|
g |----4-----4-----4---------|
d |----5-----4-----5---------|
a |----5-----2-----5---------|
E |----3-----2-----3---------|
[ Tab from: http://www.guitartabs.cc/tabs/f/frankie_j/obsession_crd_ver_2.html ]
These are the chords figure out the strumming



Chorus

Asus-        A    
Amor, no es amor (if this aint love)
Em                        Bm
What am I feeling (what am i doing wrong)
Asus-        A
Amor, no es amor (if this aint love)
Em                                      Bm
Its just an illusion that i have in my heart 

 
      Asus-  A    Em     Bm

e |----5-----5-----0-----2----|
b |----5-----5-----0-----3----|
g |----7-----6-----0-----4----|
d |----7-----7-----2-----4----|
a |----5-----7-----2-----2----|
E |----5-----5-----0-----2----|
Comments