Frankie J - More Than Words Chords & Tabs

 

More Than Words Chords & Tabs

Frankie J Chords & Tabs

Version: 3 Type: Tab

More Than Words Tab

   
-----------------------------------------------------------------
More Than Words - Frankie J
-----------------------------------------------------------------
Tabbed by: Carlos Malache
Email: mrdinkleberry@sbcglobal.net

Tuning: EADGBe (Standard)

I had seen really, really bad tabs of this song floating around the internet, so I 
to make my own. Enjoy :)

NOTE: The first G chord you play is an upward stroke slowly with your middle finger, 
to the song and you'll get it.
[ Tab from: http://www.guitartabs.cc/tabs/f/frankie_j/more_than_words_tab_ver_3.html ]
e|-33----3---3--33---3-33-0-3-0h2-3------------------------------|
B|-3---3-3-3-3--33-1-1-11-1-1-3---3------------------------------|
G|-0-------------------------------------------------------------|
D|-0-------------------------------------------------------------|
A|-2---2---3-----------------------------------------------------|
E|-3-------------------------------------------------------------|

| /  slide up
|   slide down
| h  hammer-on
| p  pull-off
| ~  vibrato
| +  harmonic
| x  Mute note