Frankie J - How To Deal Chords & Tabs

 

How To Deal Chords & Tabs

Frankie J Chords & Tabs

Version: 1 Type: Tab 0 ratings
1 star 2 stars 3 stars 4 stars 5 stars
comments

How To Deal Tab

   
I'm certain this is the correct way to play this song.
-Jorge M.

Chord Progression:

      A6    Bm     G     A
e |---|5|---|7|---|3|---|5|---|
b |---|7|---|9|---|3|---|5|---|
g |---|6|---|9|---|4|---|6|---|
d |---|7|---|7|---|5|---|7|---|
a |---|5|---|7|---|5|---|7|---|
E |---|5|---|7|---|3|---|5|---|
[ Tab from: http://www.guitartabs.cc/tabs/f/frankie_j/how_to_deal_tab.html ]
e |------------------------------------------------|
b |----------------10------------------------------|
g |-11p9s7---9s11------7-7h9s11----7p6--6h7--9-----|
d |-----------------------------9------------------|
a |------------------------------------------------|
E |------------------------------------------------|

e |--------------------9h10p9----------------------|
b |----------------10---------10-------------------|
g |-11p9s7---9s11-----------------9h11---7---------|
d |------------------------------------------------|
a |------------------------------------------------|
E |------------------------------------------------|
Comments