Frankenstein Drag Queens From Planet 13 - Too Dead Too Die Chords & Tabs

 

Too Dead Too Die Chords & Tabs

Frankenstein Drag Queens From Planet 13 Chords & Tabs

Version: 1 Type: Tab 0 ratings
1 star 2 stars 3 stars 4 stars 5 stars
comments

Too Dead Too Die Tab

Tabbed by: Ding
Email:devilishsdude22@hotmail.com

Tuning: Standard tuning

Yet again i give a great song to play!!! By fdq fr those who want it : )

( was kinda tricky to work out but im sure its correct )

e|----------------------------------------------|
B|----------------------------------------------|
G|------------------------10h12b-10-------------|
D|---12-12-10-12-10-12-12-----------------------|
A|----------------------------------------------|
E|----------------------------------------------|

Verse (Gtr 1)

e|-----------------------------------------------| ( play 4 times)
B|-----------------------------------------------|
G|-----------------------------------------------|
D|---5-4-7-7-7-7-7-7-7-7-------------------------|
A|---5-6-7-7-7-7-7-7-7-7-------------------------|
E|---3-4-5-5-5-5-5-5-5-5-------------------------|

and then ...

[ Tab from: http://www.guitartabs.cc/tabs/f/frankenstein_drag_queens_from_planet_13/too_dead_too_die_tab.html ]
e|-----------------------------------------------| ( PLAY 4 TIMES )
B|-----------------------------------------------|
G|---5-4-7-7-7-7-7-7-7-7-------------------------|
D|---5-6-7-7-7-7-7-7-7-7-------------------------|
A|---3-4-5-5-5-5-5-5-5-5-------------------------|
E|-----------------------------------------------|

e|-----------------------------------------------| ( times 2)
B|-----------------------------------------------|
G|-----------------------------------------------|
D|---5-4-7-7-7-7-7-7-7-7-------------------------|
A|---5-6-7-7-7-7-7-7-7-7-------------------------|
E|---3-4-5-5-5-5-5-5-5-5-------------------------|

Chourus

e|-----------------------------|
B|-----------------------------|
G|---9-9-9-9-7-7-7-7-----------|
D|---9-9-9-9-7-7-7-7-7-7-7-7---|
A|---7-7-7-7-5-7-7-7-7-7-7-7---|
E|-------------------5-5-5-5---|

solo part 1 ( i know its jazzy and i can just bout play it, tricky too tab)

so just play chourus over it

e|-----------------------------|
B|-----------------------------|
G|---9-9-9-9-7-7-7-7-----------|
D|---9-9-9-9-7-7-7-7-7-7-7-7---|
A|---7-7-7-7-5-7-7-7-7-7-7-7---|
E|-------------------5-5-5-5---|

And then...

Solo part 2 ( easyier to play and tab )

e|-15p14-12------------|
B|----------15p14-12---|   ( do this fast 8 times )
D|---------------------|
A|---------------------|
E|---------------------|

Right dats bout it, i know have a habbit of doing FDQ/Murderdolls and wednesday 13 songs 
So anyway enjoy, you will get solo trust me. Cheers
Comments