Frankenstein Drag Queens From Planet 13 - Shes A Man Chords & Tabs

 

Shes A Man Chords & Tabs

Frankenstein Drag Queens From Planet 13 Chords & Tabs

Version: 1 Type: Bass Tab 0 ratings
1 star 2 stars 3 stars 4 stars 5 stars
comments

Shes A Man Bass Tab

This song is again very easy, and it's one of the best they've done!!

Intro
G------------------|
D------------------|
A9--9--9--999-11-9-|
E-97-97-97---------|
[ Tab from: http://www.guitartabs.cc/tabs/f/frankenstein_drag_queens_from_planet_13/shes_a_man_btab.html ]
Verse
G------------------|
D------------------|
A9--9--9--999-11-9-|
E-97-97-97---------|

Chorus
G-------------------------|
D---1-----1-----1-----1---|
A--2-42--2-42--2-42--2-42-|
E24----24----24----24-----|

Intro x2
Verse x2
Chorus x4
Verse x4
Chorus x4
Verse (guitar solo) x2
Chorus x4
Verse x2

Tab submitted by Rich Hatton
Comments