Frankenstein Drag Queens From Planet 13 - Rambo Chords & Tabs

 

Rambo Chords & Tabs

Frankenstein Drag Queens From Planet 13 Chords & Tabs

Version: 1 Type: Tab 0 ratings
1 star 2 stars 3 stars 4 stars 5 stars
comments

Rambo Tab

   
Intro. x2
e:--------------------------------
B:--------------------------------
G:--------------------------------
D:--------------------------------
A:2222222222222222---------------- }pm
E:----------------0000000022222222 }pm 

Then when Wednesday screams
e:--
B:--
G:--
D:--
A:24
E:02

Verse/Chorus
e:--------------------------------
B:--------------------------------
G:0000000000000000----------------
D:0000000000000000----------------
A:2222222222222222-2222222244444444
E:-----------------0000000022222222

First mini guitar-solo
e:---------------------
B:---------------------
G:---------------------
D:9(bend slightly)-----
A:----------------9-9-7
E:---------------------
[ Tab from: http://www.guitartabs.cc/tabs/f/frankenstein_drag_queens_from_planet_13/rambo_tab.html ]
Verse/Chorus
e:--------------------------------
B:--------------------------------
G:0000000000000000----------------
D:0000000000000000----------------
A:2222222222222222-2222222244444444
E:-----------------0000000022222222

2nd guitar-solo
e:--------------
B:12-12-12------12-12-12-12-12----
G:-----------11-----------------11
D:--------14------------------14--
A:--------------------------------
E:--------------------------------

Intro. x2

Then when Wednesday screams again
e:---
B:---
G:---
D:---
A:2-4
E:0-2

Verse/Chorus

Ending- when Wednesday holds the last "o" in Rambo
e:----------------
B:----------------
G:0000000000000000
D:0000000000000000
A:2222222222222222
E:----------------
Comments