Frankenstein Drag Queens From Planet 13 - Nightbreed Chords & Tabs

 

Nightbreed Chords & Tabs

Frankenstein Drag Queens From Planet 13 Chords & Tabs

Version: 1 Type: Tab 0 ratings
1 star 2 stars 3 stars 4 stars 5 stars
comments

Nightbreed Tab

Tabbed By : ding
e-mail: devilishdude22@hotmail.com

Tuning: standard

inrto

G|---------------------------------------| play twice
D|---------------------------------------|
A|---------------------------------------|
E|---3-5-0--3-5-0--3-5-0--3-2-0----------|

And then drums kick in

G|----------------------------------------------------| play twice
D|----------------------------------------------------|
A|----------------------------------------------------|
E|---3-5-0-0-0-0--3-5-0-0-0-0-3-5-0-0-0-0-3-2-0-0-0-0-|

verse

G|----------------------------------------------------| play 4 times
D|----------------------------------------------------|
A|----------------------------------------------------|
E|---3-5-0-0-0-0--3-5-0-0-0-0-3-5-0-0-0-0-3-2-0-0-0-0-|

verse break

G|---------------------------------------| play twice
D|---------------------------------------|
A|---------------------------------------|
E|---3-5-0--3-5-0--3-5-0--3-2-0----------|

pre chourus ( dont point ya finger at me... )

[ Tab from: http://www.guitartabs.cc/tabs/f/frankenstein_drag_queens_from_planet_13/nightbreed_tab.html ]
G|-------------------------------------------------------------|
D|-------------------------------------------------------------|
A|-------------------------------------------------------------|
E|---5-5-5-5-5-5-5-5-3-3-3-3-2-2-2-2---0-0--0-0----------------|

G|-----------------------------------|
D|-----------------------------------|
A|-----------------------------------|
E|---5-5-5-5-5-5-5-5-3-3-3-3-2-2-2-2-|

chourus ( evil walks, evil breeds we are called the night breed ... )

G|----------------------------------------------------| play twice or 4 times
D|----------------------------------------------------|
A|----------------------------------------------------|
E|---3-5-0-0-0-0--3-5-0-0-0-0-3-5-0-0-0-0-3-2-0-0-0-0-|

middle ( god damn, my soul ... )

G|---------| listen to cd to see how many times
D|---------|
A|---------|
E|--0-0----|

During solo

G|----------------------------------------------------| play twice
D|----------------------------------------------------|
A|----------------------------------------------------|
E|---5-5-5-5-5-5-5-5-3-3-3-3-2-2-2-2--0-0--0-0--------|

WOOOO another tab done i just love this band and wednesday 13 himself. If theres any 
email me... cheers. This songs pretty easy

Intro
Intro when drums kick in
verse
verse break
verse
pre-chourus
chourus
verse break
verse
pre-chourus
chourus
middle
solo
intro
chourus until end

Done : )
Comments