Frankenstein Drag Queens From Planet 13 - Kung Fu You Chords & Tabs

 

Kung Fu You Chords & Tabs

Frankenstein Drag Queens From Planet 13 Chords & Tabs

Version: 1 Type: Bass Tab 0 ratings
1 star 2 stars 3 stars 4 stars 5 stars
comments

Kung Fu You Bass Tab

Band: FDQ
song : Kung Fu You
Tabbed By : Ding
e-mail: devilishdude22@hotmail.com

Tuning: Standard

intro

G|------------------------------------------------| (x2)
D|------------------------------------------------|
A|---5-5-4-3--5-5-4-2-----------------------------|
E|---------------------3-3-3-3-5-5-5-5------------|

Verse

G|---------------------| (x4)
D|---------------------|
A|-----------------5---|
E|---3-3-3-3-5-5-5-----|

chourus
[ Tab from: http://www.guitartabs.cc/tabs/f/frankenstein_drag_queens_from_planet_13/kung_fu_you_btab.html ]
G|---------------------| (x8)
D|---------------------|
A|-----------------5---|
E|---3-3-3-3-5-5-5-----|


Pre chourus ( And theres nothin more i can do when i ... )

G|--------------------------------------------------------------|
D|--------------------------------------------------------------|
A|-------------------5-5-5-4-2-2-2-2----------------------------|
E|---3-3-3-3-5-5-5-5-----------------3-3-3-3-5-5-5-5------------|

Chourus ( kung fu you )

G|-----------------|
D|-----------------|
A|----5-5-4-2------|
E|-----------------|

This songs one of the best by FDQ enjoy. And its really good live.
Rock out!!! ding

devilishsdude22@hotmail.com
Comments